  0
SECTION
  2
HEADER
  9
$ACADVER
  1
AC1015
  9
$ACADMAINTVER
 70
    20
  9
$DWGCODEPAGE
  3
ANSI_932
  9
$INSBASE
 10
0.0
 20
0.0
 30
0.0
  9
$EXTMIN
 10
590.5103903308984
 20
12.99689295489496
 30
0.0
  9
$EXTMAX
 10
782.5103903308984
 20
294.1190219548949
 30
0.0
  9
$LIMMIN
 10
342.011024
 20
11.779796
  9
$LIMMAX
 10
534.0130239999998
 20
292.903924
  9
$ORTHOMODE
 70
     1
  9
$REGENMODE
 70
     1
  9
$FILLMODE
 70
     1
  9
$QTEXTMODE
 70
     0
  9
$MIRRTEXT
 70
     0
  9
$LTSCALE
 40
4.685369
  9
$ATTMODE
 70
     1
  9
$TEXTSIZE
 40
3.2
  9
$TRACEWID
 40
0.05
  9
$TEXTSTYLE
  7
高3.2
  9
$CLAYER
  8
0
  9
$CELTYPE
  6
CONTINUOUS
  9
$CECOLOR
 62
   256
  9
$CELTSCALE
 40
1.0
  9
$DISPSILH
 70
     0
  9
$DIMSCALE
 40
1.0
  9
$DIMASZ
 40
2.5
  9
$DIMEXO
 40
0.25
  9
$DIMDLI
 40
0.2
  9
$DIMRND
 40
0.0
  9
$DIMDLE
 40
0.0
  9
$DIMEXE
 40
1.25
  9
$DIMTP
 40
0.0
  9
$DIMTM
 40
0.0
  9
$DIMTXT
 40
3.0
  9
$DIMCEN
 40
0.0
  9
$DIMTSZ
 40
0.0
  9
$DIMTOL
 70
     0
  9
$DIMLIM
 70
     0
  9
$DIMTIH
 70
     0
  9
$DIMTOH
 70
     0
  9
$DIMSE1
 70
     0
  9
$DIMSE2
 70
     0
  9
$DIMTAD
 70
     3
  9
$DIMZIN
 70
     8
  9
$DIMBLK
  1
Open30
  9
$DIMASO
 70
     1
  9
$DIMSHO
 70
     1
  9
$DIMPOST
  1

  9
$DIMAPOST
  1

  9
$DIMALT
 70
     0
  9
$DIMALTD
 70
     3
  9
$DIMALTF
 40
0.03937007874016
  9
$DIMLFAC
 40
1.0
  9
$DIMTOFL
 70
     1
  9
$DIMTVP
 40
0.0
  9
$DIMTIX
 70
     0
  9
$DIMSOXD
 70
     0
  9
$DIMSAH
 70
     0
  9
$DIMBLK1
  1

  9
$DIMBLK2
  1

  9
$DIMSTYLE
  2
1：1
  9
$DIMCLRD
 70
     0
  9
$DIMCLRE
 70
     0
  9
$DIMCLRT
 70
     4
  9
$DIMTFAC
 40
1.0
  9
$DIMGAP
 40
0.625
  9
$DIMJUST
 70
     0
  9
$DIMSD1
 70
     0
  9
$DIMSD2
 70
     0
  9
$DIMTOLJ
 70
     0
  9
$DIMTZIN
 70
     8
  9
$DIMALTZ
 70
     0
  9
$DIMALTTZ
 70
     0
  9
$DIMUPT
 70
     1
  9
$DIMDEC
 70
     2
  9
$DIMTDEC
 70
     2
  9
$DIMALTU
 70
     2
  9
$DIMALTTD
 70
     3
  9
$DIMTXSTY
  7
STANDARD
  9
$DIMAUNIT
 70
     0
  9
$DIMADEC
 70
     1
  9
$DIMALTRND
 40
0.0
  9
$DIMAZIN
 70
     2
  9
$DIMDSEP
 70
    46
  9
$DIMATFIT
 70
     0
  9
$DIMFRAC
 70
     0
  9
$DIMLDRBLK
  1
Open30
  9
$DIMLUNIT
 70
     2
  9
$DIMLWD
 70
    -2
  9
$DIMLWE
 70
    -2
  9
$DIMTMOVE
 70
     0
  9
$LUNITS
 70
     2
  9
$LUPREC
 70
     4
  9
$SKETCHINC
 40
0.1
  9
$FILLETRAD
 40
100.0
  9
$AUNITS
 70
     0
  9
$AUPREC
 70
     0
  9
$MENU
  1
.
  9
$ELEVATION
 40
0.0
  9
$PELEVATION
 40
0.0
  9
$THICKNESS
 40
0.0
  9
$LIMCHECK
 70
     0
  9
$CHAMFERA
 40
0.0
  9
$CHAMFERB
 40
0.0
  9
$CHAMFERC
 40
0.0
  9
$CHAMFERD
 40
0.0
  9
$SKPOLY
 70
     0
  9
$TDCREATE
 40
2456071.587976378
  9
$TDUCREATE
 40
2456071.212976377
  9
$TDUPDATE
 40
2456850.656287917
  9
$TDUUPDATE
 40
2456850.281287917
  9
$TDINDWG
 40
0.1229921759
  9
$TDUSRTIMER
 40
0.1229906713
  9
$USRTIMER
 70
     1
  9
$ANGBASE
 50
0.0
  9
$ANGDIR
 70
     0
  9
$PDMODE
 70
     0
  9
$PDSIZE
 40
0.0
  9
$PLINEWID
 40
0.0
  9
$SPLFRAME
 70
     0
  9
$SPLINETYPE
 70
     6
  9
$SPLINESEGS
 70
     8
  9
$HANDSEED
  5
1528
  9
$SURFTAB1
 70
     6
  9
$SURFTAB2
 70
     6
  9
$SURFTYPE
 70
     6
  9
$SURFU
 70
     6
  9
$SURFV
 70
     6
  9
$UCSBASE
  2

  9
$UCSNAME
  2

  9
$UCSORG
 10
0.0
 20
0.0
 30
0.0
  9
$UCSXDIR
 10
1.0
 20
0.0
 30
0.0
  9
$UCSYDIR
 10
0.0
 20
1.0
 30
0.0
  9
$UCSORTHOREF
  2

  9
$UCSORTHOVIEW
 70
     0
  9
$UCSORGTOP
 10
0.0
 20
0.0
 30
0.0
  9
$UCSORGBOTTOM
 10
0.0
 20
0.0
 30
0.0
  9
$UCSORGLEFT
 10
0.0
 20
0.0
 30
0.0
  9
$UCSORGRIGHT
 10
0.0
 20
0.0
 30
0.0
  9
$UCSORGFRONT
 10
0.0
 20
0.0
 30
0.0
  9
$UCSORGBACK
 10
0.0
 20
0.0
 30
0.0
  9
$PUCSBASE
  2

  9
$PUCSNAME
  2

  9
$PUCSORG
 10
0.0
 20
0.0
 30
0.0
  9
$PUCSXDIR
 10
1.0
 20
0.0
 30
0.0
  9
$PUCSYDIR
 10
0.0
 20
1.0
 30
0.0
  9
$PUCSORTHOREF
  2

  9
$PUCSORTHOVIEW
 70
     0
  9
$PUCSORGTOP
 10
0.0
 20
0.0
 30
0.0
  9
$PUCSORGBOTTOM
 10
0.0
 20
0.0
 30
0.0
  9
$PUCSORGLEFT
 10
0.0
 20
0.0
 30
0.0
  9
$PUCSORGRIGHT
 10
0.0
 20
0.0
 30
0.0
  9
$PUCSORGFRONT
 10
0.0
 20
0.0
 30
0.0
  9
$PUCSORGBACK
 10
0.0
 20
0.0
 30
0.0
  9
$USERI1
 70
     0
  9
$USERI2
 70
     0
  9
$USERI3
 70
     0
  9
$USERI4
 70
     0
  9
$USERI5
 70
     0
  9
$USERR1
 40
0.0
  9
$USERR2
 40
0.0
  9
$USERR3
 40
0.0
  9
$USERR4
 40
0.0
  9
$USERR5
 40
0.0
  9
$WORLDVIEW
 70
     1
  9
$SHADEDGE
 70
     3
  9
$SHADEDIF
 70
    70
  9
$TILEMODE
 70
     1
  9
$MAXACTVP
 70
    64
  9
$PINSBASE
 10
0.0
 20
0.0
 30
0.0
  9
$PLIMCHECK
 70
     0
  9
$PEXTMIN
 10
1.000000000000000E+20
 20
1.000000000000000E+20
 30
1.000000000000000E+20
  9
$PEXTMAX
 10
-1.000000000000000E+20
 20
-1.000000000000000E+20
 30
-1.000000000000000E+20
  9
$PLIMMIN
 10
0.0
 20
0.0
  9
$PLIMMAX
 10
12.0
 20
9.0
  9
$UNITMODE
 70
     0
  9
$VISRETAIN
 70
     1
  9
$PLINEGEN
 70
     0
  9
$PSLTSCALE
 70
     1
  9
$TREEDEPTH
 70
  3020
  9
$CMLSTYLE
  2
Standard
  9
$CMLJUST
 70
     0
  9
$CMLSCALE
 40
1.0
  9
$PROXYGRAPHICS
 70
     1
  9
$MEASUREMENT
 70
     0
  9
$CELWEIGHT
370
    -1
  9
$ENDCAPS
280
     0
  9
$JOINSTYLE
280
     0
  9
$LWDISPLAY
290
     0
  9
$INSUNITS
 70
     0
  9
$HYPERLINKBASE
  1

  9
$STYLESHEET
  1
N-PLOT.CTB
  9
$XEDIT
290
     1
  9
$CEPSNTYPE
380
     0
  9
$PSTYLEMODE
290
     1
  9
$FINGERPRINTGUID
  2
{0A1FAED5-56B2-423F-971C-9D0A1D4A0C46}
  9
$VERSIONGUID
  2
{CEA3B43C-9690-4F1C-B90A-25E40ED9FCE9}
  9
$EXTNAMES
290
     1
  9
$PSVPSCALE
 40
0.0
  9
$OLESTARTUP
290
     0
  0
ENDSEC
  0
SECTION
  2
CLASSES
  0
CLASS
  1
ACDBDICTIONARYWDFLT
  2
AcDbDictionaryWithDefault
  3
ObjectDBX Classes
 90
        0
280
     0
281
     0
  0
CLASS
  1
MATERIAL
  2
AcDbMaterial
  3
ObjectDBX Classes
 90
     1153
280
     0
281
     0
  0
CLASS
  1
VISUALSTYLE
  2
AcDbVisualStyle
  3
ObjectDBX Classes
 90
     4095
280
     0
281
     0
  0
CLASS
  1
SCALE
  2
AcDbScale
  3
ObjectDBX Classes
 90
     1153
280
     0
281
     0
  0
CLASS
  1
TABLESTYLE
  2
AcDbTableStyle
  3
ObjectDBX Classes
 90
     4095
280
     0
281
     0
  0
CLASS
  1
MLEADERSTYLE
  2
AcDbMLeaderStyle
  3
ACDB_MLEADERSTYLE_CLASS
 90
     4095
280
     0
281
     0
  0
CLASS
  1
SORTENTSTABLE
  2
AcDbSortentsTable
  3
ObjectDBX Classes
 90
        0
280
     0
281
     0
  0
CLASS
  1
DICTIONARYVAR
  2
AcDbDictionaryVar
  3
ObjectDBX Classes
 90
        0
280
     0
281
     0
  0
CLASS
  1
CELLSTYLEMAP
  2
AcDbCellStyleMap
  3
ObjectDBX Classes
 90
     1152
280
     0
281
     0
  0
CLASS
  1
ACDBPLACEHOLDER
  2
AcDbPlaceHolder
  3
ObjectDBX Classes
 90
        0
280
     0
281
     0
  0
CLASS
  1
LAYOUT
  2
AcDbLayout
  3
ObjectDBX Classes
 90
        0
280
     0
281
     0
  0
ENDSEC
  0
SECTION
  2
TABLES
  0
TABLE
  2
VPORT
  5
8
330
0
100
AcDbSymbolTable
 70
     1
  0
VPORT
  5
8B
330
8
100
AcDbSymbolTableRecord
100
AcDbViewportTableRecord
  2
*Active
 70
     0
 10
0.0
 20
0.0
 11
1.0
 21
1.0
 12
865.7535704956167
 22
121.9923711605441
 13
0.0
 23
0.0
 14
1.0
 24
1.0
 15
0.0
 25
0.0
 16
0.0
 26
0.0
 36
1.0
 17
0.0
 27
0.0
 37
0.0
 40
551.0530311641043
 41
2.289370078740157
 42
50.0
 43
0.0
 44
0.0
 50
0.0
 51
0.0
 71
     0
 72
   100
 73
     1
 74
     1
 75
     0
 76
     0
 77
     0
 78
     0
281
     0
 65
     1
110
0.0
120
0.0
130
0.0
111
1.0
121
0.0
131
0.0
112
0.0
122
1.0
132
0.0
 79
     0
146
0.0
  0
ENDTAB
  0
TABLE
  2
LTYPE
  5
5
330
0
100
AcDbSymbolTable
 70
     2
  0
LTYPE
  5
5A
330
5
100
AcDbSymbolTableRecord
100
AcDbLinetypeTableRecord
  2
ByBlock
 70
     0
  3

 72
    65
 73
     0
 40
0.0
  0
LTYPE
  5
5B
330
5
100
AcDbSymbolTableRecord
100
AcDbLinetypeTableRecord
  2
ByLayer
 70
     0
  3

 72
    65
 73
     0
 40
0.0
  0
LTYPE
  5
5C
330
5
100
AcDbSymbolTableRecord
100
AcDbLinetypeTableRecord
  2
CONTINUOUS
 70
     0
  3
Solid-line
 72
    65
 73
     0
 40
0.0
  0
LTYPE
  5
72
330
5
100
AcDbSymbolTableRecord
100
AcDbLinetypeTableRecord
  2
CENTER
 70
     0
  3
CENTER
 72
    65
 73
     4
 40
2.0
 49
1.25
 74
     0
 49
-0.25
 74
     0
 49
0.25
 74
     0
 49
-0.25
 74
     0
  0
ENDTAB
  0
TABLE
  2
LAYER
  5
2
102
{ACAD_XDICTIONARY
360
3EB
102
}
330
0
100
AcDbSymbolTable
 70
     2
  0
LAYER
  5
54
102
{ACAD_XDICTIONARY
360
544
102
}
330
2
100
AcDbSymbolTableRecord
100
AcDbLayerTableRecord
  2
0
 70
     0
 62
     7
  6
CONTINUOUS
370
    -3
390
F
  0
LAYER
  5
3D6
330
2
100
AcDbSymbolTableRecord
100
AcDbLayerTableRecord
  2
Defpoints
 70
     0
 62
     7
  6
CONTINUOUS
290
     0
370
    -3
390
F
  0
ENDTAB
  0
TABLE
  2
STYLE
  5
3
330
0
100
AcDbSymbolTable
 70
     6
  0
STYLE
  5
55
330
3
100
AcDbSymbolTableRecord
100
AcDbTextStyleTableRecord
  2
STANDARD
 70
     0
 40
0.0
 41
1.0
 50
0.0
 71
     0
 42
0.2
  3
TXT
  4
BIGFONT
  0
STYLE
  5
3D7
330
3
100
AcDbSymbolTableRecord
100
AcDbTextStyleTableRecord
  2
高3.2
 70
     0
 40
3.2
 41
1.0
 50
0.0
 71
     0
 42
3.2
  3
txt.shx
  4
bigfont.shx
  0
STYLE
  5
3D8
330
3
100
AcDbSymbolTableRecord
100
AcDbTextStyleTableRecord
  2
高6.3
 70
     0
 40
6.299999999999998
 41
1.0
 50
0.0
 71
     0
 42
6.299999999999998
  3
txt.shx
  4
bigfont.shx
  0
STYLE
  5
3D9
330
3
100
AcDbSymbolTableRecord
100
AcDbTextStyleTableRecord
  2
高2.5
 70
     0
 40
2.5
 41
1.0
 50
0.0
 71
     0
 42
0.2
  3
txt.shx
  4
bigfont.shx
  0
STYLE
  5
3DA
330
3
100
AcDbSymbolTableRecord
100
AcDbTextStyleTableRecord
  2
高4.5
 70
     0
 40
4.5
 41
1.0
 50
0.0
 71
     0
 42
6.299999999999998
  3
txt.shx
  4
bigfont.shx
  0
STYLE
  5
3DB
330
3
100
AcDbSymbolTableRecord
100
AcDbTextStyleTableRecord
  2
高2
 70
     0
 40
2.0
 41
1.0
 50
0.0
 71
     0
 42
2.0
  3
txt.shx
  4
bigfont.shx
  0
ENDTAB
  0
TABLE
  2
VIEW
  5
6
330
0
100
AcDbSymbolTable
 70
     0
  0
ENDTAB
  0
TABLE
  2
UCS
  5
7
330
0
100
AcDbSymbolTable
 70
     0
  0
ENDTAB
  0
TABLE
  2
APPID
  5
9
330
0
100
AcDbSymbolTable
 70
    12
  0
APPID
  5
56
330
9
100
AcDbSymbolTableRecord
100
AcDbRegAppTableRecord
  2
ACAD
 70
     0
  0
APPID
  5
5D
330
9
100
AcDbSymbolTableRecord
100
AcDbRegAppTableRecord
  2
AcadAnnotative
 70
     0
  0
APPID
  5
3E6
330
9
100
AcDbSymbolTableRecord
100
AcDbRegAppTableRecord
  2
ACAD_DSTYLE_DIMJOGGED_JOGANGLE_SYMBOL
 70
     0
  0
APPID
  5
3E7
330
9
100
AcDbSymbolTableRecord
100
AcDbRegAppTableRecord
  2
ACAD_DSTYLE_DIMJAG
 70
     0
  0
APPID
  5
3E8
330
9
100
AcDbSymbolTableRecord
100
AcDbRegAppTableRecord
  2
ACAD_DSTYLE_DIMBREAK
 70
     0
  0
APPID
  5
3E9
330
9
100
AcDbSymbolTableRecord
100
AcDbRegAppTableRecord
  2
ACAD_DSTYLE_DIMTALN
 70
     0
  0
APPID
  5
533
330
9
100
AcDbSymbolTableRecord
100
AcDbRegAppTableRecord
  2
ACAD_EXEMPT_FROM_CAD_STANDARDS
 70
     0
  0
APPID
  5
58C
330
9
100
AcDbSymbolTableRecord
100
AcDbRegAppTableRecord
  2
ACAD_MLEADERVER
 70
     0
  0
APPID
  5
591
330
9
100
AcDbSymbolTableRecord
100
AcDbRegAppTableRecord
  2
ACAD_DSTYLE_DIMARC_LENGTH_SYMBOL
 70
     0
  0
APPID
  5
592
330
9
100
AcDbSymbolTableRecord
100
AcDbRegAppTableRecord
  2
ACAD_DSTYLE_DIMEXT_LENGTH
 70
     0
  0
APPID
  5
664
330
9
100
AcDbSymbolTableRecord
100
AcDbRegAppTableRecord
  2
ACAD_PSEXT
 70
     0
  0
APPID
  5
6FD
330
9
100
AcDbSymbolTableRecord
100
AcDbRegAppTableRecord
  2
ACAD_DSTYLE_DIMRADIAL_EXTENSION
 70
     0
  0
ENDTAB
  0
TABLE
  2
DIMSTYLE
  5
A
330
0
100
AcDbSymbolTable
 70
     2
100
AcDbDimStyleTable
 71
     2
340
3DC
340
57
  0
DIMSTYLE
105
57
330
A
100
AcDbSymbolTableRecord
100
AcDbDimStyleTableRecord
  2
Standard
 70
     0
340
55
  0
DIMSTYLE
105
3DC
330
A
100
AcDbSymbolTableRecord
100
AcDbDimStyleTableRecord
  2
1：1
 70
     0
 41
2.5
 42
0.25
 43
0.2
 44
1.25
 73
     0
 74
     0
 77
     3
 78
     8
 79
     2
140
3.0
141
0.0
143
0.03937007874016
147
0.625
171
     3
172
     1
178
     4
179
     1
271
     2
272
     2
274
     3
283
     0
284
     8
288
     1
289
     0
340
55
341
346
342
346
1001
ACAD_DSTYLE_DIMARC_LENGTH_SYMBOL
1070
   379
1070
     2
1001
ACAD_DSTYLE_DIMEXT_LENGTH
1070
   378
1040
1.25
1001
ACAD_DSTYLE_DIMJOGGED_JOGANGLE_SYMBOL
1070
   384
1040
1.570796326794896
  0
ENDTAB
  0
TABLE
  2
BLOCK_RECORD
  5
1
330
0
100
AcDbSymbolTable
 70
     6
  0
BLOCK_RECORD
  5
6B
102
{ACAD_XDICTIONARY
360
658
102
}
330
1
100
AcDbSymbolTableRecord
100
AcDbBlockTableRecord
  2
*Model_Space
340
6E
  0
BLOCK_RECORD
  5
67
330
1
100
AcDbSymbolTableRecord
100
AcDbBlockTableRecord
  2
*Paper_Space
340
6A
  0
BLOCK_RECORD
  5
346
330
1
100
AcDbSymbolTableRecord
100
AcDbBlockTableRecord
  2
_Open30
340
0
102
{BLKREFS
331
1400
331
1401
331
1409
331
140A
331
1412
331
1413
331
141B
331
141C
331
1424
331
1425
102
}
  0
BLOCK_RECORD
  5
F10
330
1
100
AcDbSymbolTableRecord
100
AcDbBlockTableRecord
  2
*D1
340
0
  0
BLOCK_RECORD
  5
F1C
330
1
100
AcDbSymbolTableRecord
100
AcDbBlockTableRecord
  2
*D2
340
0
  0
BLOCK_RECORD
  5
F28
330
1
100
AcDbSymbolTableRecord
100
AcDbBlockTableRecord
  2
*D3
340
0
  0
BLOCK_RECORD
  5
F34
330
1
100
AcDbSymbolTableRecord
100
AcDbBlockTableRecord
  2
*D4
340
0
  0
BLOCK_RECORD
  5
F40
330
1
100
AcDbSymbolTableRecord
100
AcDbBlockTableRecord
  2
*D5
340
0
  0
ENDTAB
  0
ENDSEC
  0
SECTION
  2
BLOCKS
  0
BLOCK
  5
6C
330
6B
100
AcDbEntity
  8
0
100
AcDbBlockBegin
  2
*Model_Space
 70
     0
 10
0.0
 20
0.0
 30
0.0
  3
*Model_Space
  1

  0
ENDBLK
  5
6D
330
6B
100
AcDbEntity
  8
0
100
AcDbBlockEnd
  0
BLOCK
  5
68
330
67
100
AcDbEntity
 67
     1
  8
0
100
AcDbBlockBegin
  2
*Paper_Space
 70
     0
 10
0.0
 20
0.0
 30
0.0
  3
*Paper_Space
  1

  0
ENDBLK
  5
69
330
67
100
AcDbEntity
 67
     1
  8
0
100
AcDbBlockEnd
  0
BLOCK
  5
347
330
346
100
AcDbEntity
  8
0
100
AcDbBlockBegin
  2
_Open30
 70
     0
 10
0.0
 20
0.0
 30
0.0
  3
_Open30
  1

  0
LINE
  5
348
330
346
100
AcDbEntity
  8
0
  6
ByBlock
 62
     0
370
    -2
100
AcDbLine
 10
-1.0
 20
0.267949
 30
0.0
 11
0.0
 21
0.0
 31
0.0
  0
LINE
  5
349
330
346
100
AcDbEntity
  8
0
  6
ByBlock
 62
     0
370
    -2
100
AcDbLine
 10
0.0
 20
0.0
 30
0.0
 11
-1.0
 21
-0.267949
 31
0.0
  0
LINE
  5
34A
330
346
100
AcDbEntity
  8
0
  6
ByBlock
 62
     0
370
    -2
100
AcDbLine
 10
0.0
 20
0.0
 30
0.0
 11
-1.0
 21
0.0
 31
0.0
  0
ENDBLK
  5
34B
330
346
100
AcDbEntity
  8
0
100
AcDbBlockEnd
  0
BLOCK
  5
F11
330
F10
100
AcDbEntity
  8
0
100
AcDbBlockBegin
  2
*D1
 70
     1
 10
0.0
 20
0.0
 30
0.0
  3
*D1
  1

  0
LINE
  5
13FD
330
F10
100
AcDbEntity
  8
0
  6
Continuous
 62
     0
370
    -2
100
AcDbLine
 10
663.8859147128595
 20
94.39881795489487
 30
0.0
 11
610.7990723308192
 21
94.39881795489487
 31
0.0
  0
LINE
  5
13FE
330
F10
100
AcDbEntity
  8
0
  6
Continuous
 62
     0
370
    -2
100
AcDbLine
 10
663.8859147128597
 20
227.3988179548948
 30
0.0
 11
610.7990723308192
 21
227.3988179548948
 31
0.0
  0
LINE
  5
13FF
330
F10
100
AcDbEntity
  8
0
  6
Continuous
 62
     0
370
    -2
100
AcDbLine
 10
612.0490723308193
 20
96.89881795489487
 30
0.0
 11
612.0490723308193
 21
224.8988179548948
 31
0.0
  0
INSERT
  5
1400
330
F10
100
AcDbEntity
  8
0
  6
Continuous
 62
     0
370
    -2
100
AcDbBlockReference
  2
_Open30
 10
612.0490723308193
 20
94.39881795489487
 30
0.0
 41
2.5
 42
2.5
 43
2.5
 50
270.0
  0
INSERT
  5
1401
330
F10
100
AcDbEntity
  8
0
  6
Continuous
 62
     0
370
    -2
100
AcDbBlockReference
  2
_Open30
 10
612.0490723308193
 20
227.3988179548948
 30
0.0
 41
2.5
 42
2.5
 43
2.5
 50
90.0
  0
MTEXT
  5
1402
330
F10
100
AcDbEntity
  8
0
  6
Continuous
 62
     4
100
AcDbMText
 10
609.9240723308192
 20
160.0152643966726
 30
0.0
 40
3.0
 41
0.0
 71
     5
 72
     1
  1
133
 11
0.0000000000000001
 21
1.0
 31
0.0
 73
     1
 44
1.0
1001
ACAD
1000
MTEXTBEGIN
1070
    73
1070
     1
1070
    44
1040
1.0
1070
    74
1070
     0
1000
MTEXTEND
  0
POINT
  5
1403
330
F10
100
AcDbEntity
  8
Defpoints
  6
Continuous
 62
     0
100
AcDbPoint
 10
664.1359147128595
 20
94.39881795489487
 30
0.0
  0
POINT
  5
1404
330
F10
100
AcDbEntity
  8
Defpoints
  6
Continuous
 62
     0
100
AcDbPoint
 10
664.1359147128597
 20
227.3988179548948
 30
0.0
  0
POINT
  5
1405
330
F10
100
AcDbEntity
  8
Defpoints
  6
Continuous
 62
     0
100
AcDbPoint
 10
612.0490723308193
 20
227.3988179548948
 30
0.0
  0
ENDBLK
  5
F12
330
F10
100
AcDbEntity
  8
0
100
AcDbBlockEnd
  0
BLOCK
  5
F1D
330
F1C
100
AcDbEntity
  8
0
100
AcDbBlockBegin
  2
*D2
 70
     1
 10
0.0
 20
0.0
 30
0.0
  3
*D2
  1

  0
LINE
  5
1406
330
F1C
100
AcDbEntity
  8
0
  6
Continuous
 62
     0
370
    -2
100
AcDbLine
 10
640.1359147128596
 20
160.3988179548948
 30
0.0
 11
622.2339612861157
 21
160.3988179548948
 31
0.0
  0
LINE
  5
1407
330
F1C
100
AcDbEntity
  8
0
  6
Continuous
 62
     0
370
    -2
100
AcDbLine
 10
663.8859147128595
 20
94.39881795489487
 30
0.0
 11
622.2339612861157
 21
94.39881795489487
 31
0.0
  0
LINE
  5
1408
330
F1C
100
AcDbEntity
  8
0
  6
Continuous
 62
     0
370
    -2
100
AcDbLine
 10
623.4839612861157
 20
157.8988179548948
 30
0.0
 11
623.4839612861157
 21
96.89881795489487
 31
0.0
  0
INSERT
  5
1409
330
F1C
100
AcDbEntity
  8
0
  6
Continuous
 62
     0
370
    -2
100
AcDbBlockReference
  2
_Open30
 10
623.4839612861157
 20
160.3988179548948
 30
0.0
 41
2.5
 42
2.5
 43
2.5
 50
90.0
  0
INSERT
  5
140A
330
F1C
100
AcDbEntity
  8
0
  6
Continuous
 62
     0
370
    -2
100
AcDbBlockReference
  2
_Open30
 10
623.4839612861157
 20
94.39881795489487
 30
0.0
 41
2.5
 42
2.5
 43
2.5
 50
270.0
  0
MTEXT
  5
140B
330
F1C
100
AcDbEntity
  8
0
  6
Continuous
 62
     4
100
AcDbMText
 10
621.3589612861157
 20
124.4372252530633
 30
0.0
 40
3.0
 41
0.0
 71
     5
 72
     1
  1
66
 11
0.0000000000000001
 21
1.0
 31
0.0
 73
     1
 44
1.0
1001
ACAD
1000
MTEXTBEGIN
1070
    73
1070
     1
1070
    44
1040
1.0
1070
    74
1070
     0
1000
MTEXTEND
  0
POINT
  5
140C
330
F1C
100
AcDbEntity
  8
Defpoints
  6
Continuous
 62
     0
100
AcDbPoint
 10
640.3859147128596
 20
160.3988179548948
 30
0.0
  0
POINT
  5
140D
330
F1C
100
AcDbEntity
  8
Defpoints
  6
Continuous
 62
     0
100
AcDbPoint
 10
664.1359147128595
 20
94.39881795489487
 30
0.0
  0
POINT
  5
140E
330
F1C
100
AcDbEntity
  8
Defpoints
  6
Continuous
 62
     0
100
AcDbPoint
 10
623.4839612861157
 20
94.39881795489487
 30
0.0
  0
ENDBLK
  5
F1E
330
F1C
100
AcDbEntity
  8
0
100
AcDbBlockEnd
  0
BLOCK
  5
F29
330
F28
100
AcDbEntity
  8
0
100
AcDbBlockBegin
  2
*D3
 70
     1
 10
0.0
 20
0.0
 30
0.0
  3
*D3
  1

  0
LINE
  5
140F
330
F28
100
AcDbEntity
  8
0
  6
Continuous
 62
     0
370
    -2
100
AcDbLine
 10
634.6359147128595
 20
219.4801070212081
 30
0.0
 11
634.6359147128595
 21
240.2520310284827
 31
0.0
  0
LINE
  5
1410
330
F28
100
AcDbEntity
  8
0
  6
Continuous
 62
     0
370
    -2
100
AcDbLine
 10
693.6359147128595
 20
219.4801070212081
 30
0.0
 11
693.6359147128595
 21
240.2520310284827
 31
0.0
  0
LINE
  5
1411
330
F28
100
AcDbEntity
  8
0
  6
Continuous
 62
     0
370
    -2
100
AcDbLine
 10
637.1359147128595
 20
239.0020310284827
 30
0.0
 11
691.1359147128595
 21
239.0020310284827
 31
0.0
  0
INSERT
  5
1412
330
F28
100
AcDbEntity
  8
0
  6
Continuous
 62
     0
370
    -2
100
AcDbBlockReference
  2
_Open30
 10
634.6359147128595
 20
239.0020310284827
 30
0.0
 41
2.5
 42
2.5
 43
2.5
 50
180.0
  0
INSERT
  5
1413
330
F28
100
AcDbEntity
  8
0
  6
Continuous
 62
     0
370
    -2
100
AcDbBlockReference
  2
_Open30
 10
693.6359147128595
 20
239.0020310284827
 30
0.0
 41
2.5
 42
2.5
 43
2.5
  0
MTEXT
  5
1414
330
F28
100
AcDbEntity
  8
0
  6
Continuous
 62
     4
100
AcDbMText
 10
664.1359147128596
 20
241.1270310284827
 30
0.0
 40
3.0
 41
0.0
 71
     5
 72
     1
  1
%%C59
 73
     1
 44
1.0
1001
ACAD
1000
MTEXTBEGIN
1070
    73
1070
     1
1070
    44
1040
1.0
1070
    74
1070
     0
1000
MTEXTEND
  0
POINT
  5
1415
330
F28
100
AcDbEntity
  8
Defpoints
  6
Continuous
 62
     0
100
AcDbPoint
 10
634.6359147128595
 20
219.2301070212081
 30
0.0
  0
POINT
  5
1416
330
F28
100
AcDbEntity
  8
Defpoints
  6
Continuous
 62
     0
100
AcDbPoint
 10
693.6359147128595
 20
219.2301070212081
 30
0.0
  0
POINT
  5
1417
330
F28
100
AcDbEntity
  8
Defpoints
  6
Continuous
 62
     0
100
AcDbPoint
 10
693.6359147128595
 20
239.0020310284827
 30
0.0
  0
ENDBLK
  5
F2A
330
F28
100
AcDbEntity
  8
0
100
AcDbBlockEnd
  0
BLOCK
  5
F35
330
F34
100
AcDbEntity
  8
0
100
AcDbBlockBegin
  2
*D4
 70
     1
 10
0.0
 20
0.0
 30
0.0
  3
*D4
  1

  0
LINE
  5
1418
330
F34
100
AcDbEntity
  8
0
  6
Continuous
 62
     0
370
    -2
100
AcDbLine
 10
651.1419332128593
 20
104.5292009548953
 30
0.0
 11
651.1419332128593
 21
80.29601043635636
 31
0.0
  0
LINE
  5
1419
330
F34
100
AcDbEntity
  8
0
  6
Continuous
 62
     0
370
    -2
100
AcDbLine
 10
677.1343012128592
 20
102.5292009548951
 30
0.0
 11
677.1343012128592
 21
80.29601043635636
 31
0.0
  0
LINE
  5
141A
330
F34
100
AcDbEntity
  8
0
  6
Continuous
 62
     0
370
    -2
100
AcDbLine
 10
653.6419332128592
 20
81.54601043635636
 30
0.0
 11
674.6343012128591
 21
81.54601043635636
 31
0.0
  0
INSERT
  5
141B
330
F34
100
AcDbEntity
  8
0
  6
Continuous
 62
     0
370
    -2
100
AcDbBlockReference
  2
_Open30
 10
651.1419332128593
 20
81.54601043635636
 30
0.0
 41
2.5
 42
2.5
 43
2.5
 50
180.0
  0
INSERT
  5
141C
330
F34
100
AcDbEntity
  8
0
  6
Continuous
 62
     0
370
    -2
100
AcDbBlockReference
  2
_Open30
 10
677.1343012128592
 20
81.54601043635636
 30
0.0
 41
2.5
 42
2.5
 43
2.5
  0
MTEXT
  5
141D
330
F34
100
AcDbEntity
  8
0
  6
Continuous
 62
     4
100
AcDbMText
 10
664.1381172128594
 20
83.67101043635637
 30
0.0
 40
3.0
 41
0.0
 71
     5
 72
     1
  1
E26
 73
     1
 44
1.0
1001
ACAD
1000
MTEXTBEGIN
1070
    73
1070
     1
1070
    44
1040
1.0
1070
    74
1070
     0
1000
MTEXTEND
  0
POINT
  5
141E
330
F34
100
AcDbEntity
  8
Defpoints
  6
Continuous
 62
     0
100
AcDbPoint
 10
651.1419332128593
 20
104.7792009548953
 30
0.0
  0
POINT
  5
141F
330
F34
100
AcDbEntity
  8
Defpoints
  6
Continuous
 62
     0
100
AcDbPoint
 10
677.1343012128592
 20
102.7792009548951
 30
0.0
  0
POINT
  5
1420
330
F34
100
AcDbEntity
  8
Defpoints
  6
Continuous
 62
     0
100
AcDbPoint
 10
677.1343012128592
 20
81.54601043635636
 30
0.0
  0
ENDBLK
  5
F36
330
F34
100
AcDbEntity
  8
0
100
AcDbBlockEnd
  0
BLOCK
  5
F41
330
F40
100
AcDbEntity
  8
0
100
AcDbBlockBegin
  2
*D5
 70
     1
 10
0.0
 20
0.0
 30
0.0
  3
*D5
  1

  0
LINE
  5
1421
330
F40
100
AcDbEntity
  8
0
  6
Continuous
 62
     0
370
    -2
100
AcDbLine
 10
639.1359147128597
 20
134.1488179548949
 30
0.0
 11
639.1359147128597
 21
73.12328551476717
 31
0.0
  0
LINE
  5
1422
330
F40
100
AcDbEntity
  8
0
  6
Continuous
 62
     0
370
    -2
100
AcDbLine
 10
689.1359147128595
 20
134.1488179548949
 30
0.0
 11
689.1359147128595
 21
73.12328551476717
 31
0.0
  0
LINE
  5
1423
330
F40
100
AcDbEntity
  8
0
  6
Continuous
 62
     0
370
    -2
100
AcDbLine
 10
641.6359147128597
 20
74.37328551476717
 30
0.0
 11
686.6359147128595
 21
74.37328551476717
 31
0.0
  0
INSERT
  5
1424
330
F40
100
AcDbEntity
  8
0
  6
Continuous
 62
     0
370
    -2
100
AcDbBlockReference
  2
_Open30
 10
639.1359147128597
 20
74.37328551476717
 30
0.0
 41
2.5
 42
2.5
 43
2.5
 50
180.0
  0
INSERT
  5
1425
330
F40
100
AcDbEntity
  8
0
  6
Continuous
 62
     0
370
    -2
100
AcDbBlockReference
  2
_Open30
 10
689.1359147128595
 20
74.37328551476717
 30
0.0
 41
2.5
 42
2.5
 43
2.5
  0
MTEXT
  5
1426
330
F40
100
AcDbEntity
  8
0
  6
Continuous
 62
     4
100
AcDbMText
 10
664.1359147128595
 20
76.49828551476717
 30
0.0
 40
3.0
 41
0.0
 71
     5
 72
     1
  1
%%C50
 73
     1
 44
1.0
1001
ACAD
1000
MTEXTBEGIN
1070
    73
1070
     1
1070
    44
1040
1.0
1070
    74
1070
     0
1000
MTEXTEND
  0
POINT
  5
1427
330
F40
100
AcDbEntity
  8
Defpoints
  6
Continuous
 62
     0
100
AcDbPoint
 10
639.1359147128597
 20
134.3988179548949
 30
0.0
  0
POINT
  5
1428
330
F40
100
AcDbEntity
  8
Defpoints
  6
Continuous
 62
     0
100
AcDbPoint
 10
689.1359147128595
 20
134.3988179548949
 30
0.0
  0
POINT
  5
1429
330
F40
100
AcDbEntity
  8
Defpoints
  6
Continuous
 62
     0
100
AcDbPoint
 10
689.1359147128595
 20
74.37328551476717
 30
0.0
  0
ENDBLK
  5
F42
330
F40
100
AcDbEntity
  8
0
100
AcDbBlockEnd
  0
ENDSEC
  0
SECTION
  2
ENTITIES
  0
LINE
  5
D6D
330
6B
100
AcDbEntity
  8
0
 62
     3
100
AcDbLine
 10
590.9983173308983
 20
151.4968929548949
 30
0.0
 11
590.5103903308984
 21
151.4968929548949
 31
0.0
  0
LINE
  5
D6E
330
6B
100
AcDbEntity
  8
0
 62
     3
100
AcDbLine
 10
698.9103903308984
 20
285.4915039548949
 30
0.0
 11
782.5103903308984
 21
285.4915039548949
 31
0.0
  0
TEXT
  5
D6F
330
6B
100
AcDbEntity
  8
0
 62
     3
100
AcDbText
 10
771.7853903308986
 20
281.346503954895
 30
0.0
 40
3.2
  1
担
  7
高3.2
100
AcDbText
  0
TEXT
  5
D70
330
6B
100
AcDbEntity
  8
0
 62
     3
100
AcDbText
 10
778.6728903308984
 20
281.346503954895
 30
0.0
 40
3.2
  1
当
  7
高3.2
100
AcDbText
  0
TEXT
  5
D71
330
6B
100
AcDbEntity
  8
0
 62
     3
100
AcDbText
 10
731.5896133308982
 20
281.329341954895
 30
0.0
 40
3.2
  1
変更・追記内容
  7
高3.2
100
AcDbText
  0
LINE
  5
D72
330
6B
100
AcDbEntity
  8
0
 62
     3
100
AcDbLine
 10
698.9103903308984
 20
289.996892954895
 30
0.0
 11
698.9103903308984
 21
270.6415039548949
 31
0.0
  0
TEXT
  5
D73
330
6B
100
AcDbEntity
  8
0
 62
     3
100
AcDbText
 10
703.3961648437606
 20
276.6606495415845
 30
0.0
 40
2.0
  1
1
  7
高2
100
AcDbText
  0
TEXT
  5
D74
330
6B
100
AcDbEntity
  8
0
 62
     3
100
AcDbText
 10
703.0304653134527
 20
271.5115562815871
 30
0.0
 40
2.0
  1
2
  7
高2
100
AcDbText
  0
TEXT
  5
D75
330
6B
100
AcDbEntity
  8
0
 62
     3
100
AcDbText
 10
711.8693393308981
 20
281.2821272347729
 30
0.0
 40
3.2
  1
日
  7
高3.2
100
AcDbText
  0
TEXT
  5
D76
330
6B
100
AcDbEntity
  8
0
 62
     3
100
AcDbText
 10
720.7462133308982
 20
281.2821272347729
 30
0.0
 40
3.2
  1
付
  7
高3.2
100
AcDbText
  0
TEXT
  5
D77
330
6B
100
AcDbEntity
  8
0
 62
     3
100
AcDbText
 10
711.6951803308983
 20
286.141503954895
 30
0.0
 40
3.2
  1
図
  7
高3.2
100
AcDbText
  0
TEXT
  5
D78
330
6B
100
AcDbEntity
  8
0
 62
     3
100
AcDbText
 10
730.3510753308983
 20
286.141503954895
 30
0.0
 40
3.2
  1
面
  7
高3.2
100
AcDbText
  0
TEXT
  5
D79
330
6B
100
AcDbEntity
  8
0
 62
     3
100
AcDbText
 10
749.0069713308984
 20
286.141503954895
 30
0.0
 40
3.2
  1
略
  7
高3.2
100
AcDbText
  0
TEXT
  5
D7A
330
6B
100
AcDbEntity
  8
0
 62
     3
100
AcDbText
 10
767.6628663308982
 20
286.141503954895
 30
0.0
 40
3.2
  1
歴
  7
高3.2
100
AcDbText
  0
TEXT
  5
D7B
330
6B
100
AcDbEntity
  8
0
 62
     3
100
AcDbText
 10
699.5127543308982
 20
281.266503954895
 30
0.0
 40
3.2
  1
記
  7
高3.2
100
AcDbText
  0
TEXT
  5
D7C
330
6B
100
AcDbEntity
  8
0
 62
     3
100
AcDbText
 10
705.7656613308984
 20
281.266503954895
 30
0.0
 40
3.2
  1
号
  7
高3.2
100
AcDbText
  0
LINE
  5
D7D
330
6B
100
AcDbEntity
  8
0
 62
     3
100
AcDbLine
 10
782.5103903308983
 20
270.6415039548949
 30
0.0
 11
698.9103903308984
 21
270.6415039548949
 31
0.0
  0
LINE
  5
D7E
330
6B
100
AcDbEntity
  8
0
 62
     2
100
AcDbLine
 10
669.5947423308985
 20
291.784336954895
 30
0.0
 11
670.0304903308984
 21
291.556868954895
 31
0.0
  0
LINE
  5
D7F
330
6B
100
AcDbEntity
  8
0
 62
     2
100
AcDbLine
 10
669.5947423308985
 20
288.053706954895
 30
0.0
 11
670.0304903308984
 21
288.2811749548949
 31
0.0
  0
LINE
  5
D80
330
6B
100
AcDbEntity
  8
0
 62
     2
100
AcDbLine
 10
670.0304903308984
 20
291.556868954895
 30
0.0
 11
670.0304903308984
 21
288.2811749548949
 31
0.0
  0
LINE
  5
D81
330
6B
100
AcDbEntity
  8
0
 62
     2
100
AcDbLine
 10
671.1340073308982
 20
288.053706954895
 30
0.0
 11
670.6982593308983
 21
288.2811749548949
 31
0.0
  0
LINE
  5
D82
330
6B
100
AcDbEntity
  8
0
 62
     2
100
AcDbLine
 10
670.6982593308983
 20
290.278033954895
 30
0.0
 11
670.6982593308983
 21
288.2811749548949
 31
0.0
  0
LINE
  5
D83
330
6B
100
AcDbEntity
  8
0
 62
     2
100
AcDbLine
 10
673.6758703308983
 20
291.784336954895
 30
0.0
 11
673.2401223308983
 21
291.556868954895
 31
0.0
  0
LINE
  5
D84
330
6B
100
AcDbEntity
  8
0
 62
     2
100
AcDbLine
 10
672.1366053308983
 20
291.784336954895
 30
0.0
 11
672.5723533308985
 21
291.556868954895
 31
0.0
  0
LINE
  5
D85
330
6B
100
AcDbEntity
  8
0
 62
     2
100
AcDbLine
 10
672.5723533308985
 20
291.556868954895
 30
0.0
 11
672.5723533308985
 21
290.114531954895
 31
0.0
  0
LINE
  5
D86
330
6B
100
AcDbEntity
  8
0
 62
     2
100
AcDbLine
 10
673.2401223308983
 20
291.556868954895
 30
0.0
 11
673.2401223308983
 21
287.842145954895
 31
0.0
  0
LINE
  5
D87
330
6B
100
AcDbEntity
  8
0
 62
     2
100
AcDbLine
 10
673.8911673308985
 20
291.784334954895
 30
0.0
 11
674.3269133308984
 21
291.5568639548948
 31
0.0
  0
LINE
  5
D88
330
6B
100
AcDbEntity
  8
0
 62
     2
100
AcDbLine
 10
673.8910893308982
 20
288.053756954895
 30
0.0
 11
674.3268453308983
 21
288.2812099548949
 31
0.0
  0
LINE
  5
D89
330
6B
100
AcDbEntity
  8
0
 62
     2
100
AcDbLine
 10
674.3269133308984
 20
291.5568639548948
 30
0.0
 11
674.3269133308984
 21
288.2812099548949
 31
0.0
  0
LINE
  5
D8A
330
6B
100
AcDbEntity
  8
0
 62
     2
100
AcDbLine
 10
675.8207043308985
 20
291.784310954895
 30
0.0
 11
675.3849523308984
 21
291.556848954895
 31
0.0
  0
LINE
  5
D8B
330
6B
100
AcDbEntity
  8
0
 62
     2
100
AcDbLine
 10
675.3849523308984
 20
291.556848954895
 30
0.0
 11
675.3849523308984
 21
288.2811949548949
 31
0.0
  0
LINE
  5
D8C
330
6B
100
AcDbEntity
  8
0
 62
     2
100
AcDbLine
 10
675.8207043308985
 20
288.0537329548949
 30
0.0
 11
675.3849523308984
 21
288.2811949548949
 31
0.0
  0
LINE
  5
D8D
330
6B
100
AcDbEntity
  8
0
 62
     2
100
AcDbLine
 10
679.5109573308982
 20
291.784269954895
 30
0.0
 11
679.9467043308982
 21
291.5567999548949
 31
0.0
  0
LINE
  5
D8E
330
6B
100
AcDbEntity
  8
0
 62
     2
100
AcDbLine
 10
679.9467043308982
 20
291.5567999548949
 30
0.0
 11
679.9466473308982
 21
288.281146954895
 31
0.0
  0
LINE
  5
D8F
330
6B
100
AcDbEntity
  8
0
 62
     2
100
AcDbLine
 10
679.5108923308982
 20
288.053691954895
 30
0.0
 11
679.9466473308982
 21
288.281146954895
 31
0.0
  0
LINE
  5
D90
330
6B
100
AcDbEntity
  8
0
 62
     2
100
AcDbLine
 10
681.4632183308982
 20
291.784269954895
 30
0.0
 11
681.0274713308984
 21
291.5567999548949
 31
0.0
  0
LINE
  5
D91
330
6B
100
AcDbEntity
  8
0
 62
     2
100
AcDbLine
 10
681.4632833308983
 20
288.053691954895
 30
0.0
 11
681.0275283308985
 21
288.281146954895
 31
0.0
  0
LINE
  5
D92
330
6B
100
AcDbEntity
  8
0
 62
     2
100
AcDbLine
 10
681.6669463308983
 20
291.784269954895
 30
0.0
 11
682.1026933308983
 21
291.5567999548949
 31
0.0
  0
LINE
  5
D93
330
6B
100
AcDbEntity
  8
0
 62
     2
100
AcDbLine
 10
681.6668813308982
 20
288.053691954895
 30
0.0
 11
682.1026363308982
 21
288.281146954895
 31
0.0
  0
LINE
  5
D94
330
6B
100
AcDbEntity
  8
0
 62
     2
100
AcDbLine
 10
683.6192073308985
 20
291.784269954895
 30
0.0
 11
683.1834603308982
 21
291.5567999548949
 31
0.0
  0
LINE
  5
D95
330
6B
100
AcDbEntity
  8
0
 62
     2
100
AcDbLine
 10
683.1834603308982
 20
291.5567999548949
 30
0.0
 11
683.1835173308983
 21
288.281146954895
 31
0.0
  0
LINE
  5
D96
330
6B
100
AcDbEntity
  8
0
 62
     2
100
AcDbLine
 10
683.6192723308982
 20
288.053691954895
 30
0.0
 11
683.1835173308983
 21
288.281146954895
 31
0.0
  0
LINE
  5
D97
330
6B
100
AcDbEntity
  8
0
 62
     2
100
AcDbLine
 10
682.1026683308984
 20
290.1296669548949
 30
0.0
 11
681.0274963308983
 21
290.1296669548949
 31
0.0
  0
LINE
  5
D98
330
6B
100
AcDbEntity
  8
0
 62
     2
100
AcDbLine
 10
682.1026613308982
 20
289.708376954895
 30
0.0
 11
681.0275033308985
 21
289.708376954895
 31
0.0
  0
LINE
  5
D99
330
6B
100
AcDbEntity
  8
0
 62
     2
100
AcDbLine
 10
682.1026933308983
 20
291.5567999548949
 30
0.0
 11
682.1026683308984
 21
290.1296669548949
 31
0.0
  0
LINE
  5
D9A
330
6B
100
AcDbEntity
  8
0
 62
     2
100
AcDbLine
 10
682.1026613308982
 20
289.708376954895
 30
0.0
 11
682.1026363308982
 21
288.281146954895
 31
0.0
  0
LINE
  5
D9B
330
6B
100
AcDbEntity
  8
0
 62
     2
100
AcDbLine
 10
681.0274713308984
 20
291.5567999548949
 30
0.0
 11
681.0274963308983
 21
290.1296669548949
 31
0.0
  0
LINE
  5
D9C
330
6B
100
AcDbEntity
  8
0
 62
     2
100
AcDbLine
 10
681.0275033308985
 20
289.708376954895
 30
0.0
 11
681.0275283308985
 21
288.281146954895
 31
0.0
  0
LINE
  5
D9D
330
6B
100
AcDbEntity
  8
0
 62
     2
100
AcDbLine
 10
683.8261663308983
 20
291.784269954895
 30
0.0
 11
684.2619133308983
 21
291.5567999548949
 31
0.0
  0
LINE
  5
D9E
330
6B
100
AcDbEntity
  8
0
 62
     2
100
AcDbLine
 10
684.2619133308983
 20
291.5567999548949
 30
0.0
 11
684.2618563308982
 21
288.281146954895
 31
0.0
  0
LINE
  5
D9F
330
6B
100
AcDbEntity
  8
0
 62
     2
100
AcDbLine
 10
683.8261013308982
 20
288.053691954895
 30
0.0
 11
684.2618563308982
 21
288.281146954895
 31
0.0
  0
LINE
  5
DA0
330
6B
100
AcDbEntity
  8
0
 62
     2
100
AcDbLine
 10
685.7556763308982
 20
291.784269954895
 30
0.0
 11
685.3199293308982
 21
291.5567999548949
 31
0.0
  0
LINE
  5
DA1
330
6B
100
AcDbEntity
  8
0
 62
     2
100
AcDbLine
 10
685.3199293308982
 20
291.5567999548949
 30
0.0
 11
685.3199863308985
 21
288.281146954895
 31
0.0
  0
LINE
  5
DA2
330
6B
100
AcDbEntity
  8
0
 62
     2
100
AcDbLine
 10
685.7557413308983
 20
288.053691954895
 30
0.0
 11
685.3199863308985
 21
288.281146954895
 31
0.0
  0
LINE
  5
DA3
330
6B
100
AcDbEntity
  8
0
 62
     2
100
AcDbLine
 10
685.9700363308983
 20
291.784269954895
 30
0.0
 11
686.4057833308983
 21
291.5567999548949
 31
0.0
  0
LINE
  5
DA4
330
6B
100
AcDbEntity
  8
0
 62
     2
100
AcDbLine
 10
686.4057833308983
 20
291.5567999548949
 30
0.0
 11
686.4057263308982
 21
288.281146954895
 31
0.0
  0
LINE
  5
DA5
330
6B
100
AcDbEntity
  8
0
 62
     2
100
AcDbLine
 10
685.9699713308985
 20
288.053691954895
 30
0.0
 11
686.4057263308982
 21
288.281146954895
 31
0.0
  0
ARC
  5
DA6
330
6B
100
AcDbEntity
  8
0
 62
     2
100
AcDbCircle
 10
678.1190463308984
 20
289.928411954895
 30
0.0
 40
2.086285999999998
100
AcDbArc
 50
97.70152399999965
 51
270.0
  0
ARC
  5
DA7
330
6B
100
AcDbEntity
  8
0
 62
     2
100
AcDbCircle
 10
690.9996473308982
 20
289.907454954895
 30
0.0
 40
2.108943
100
AcDbArc
 50
0.3142500000000098
 51
69.00558199999803
  0
ARC
  5
DA8
330
6B
100
AcDbEntity
  8
0
 62
     2
100
AcDbCircle
 10
691.4603223308983
 20
289.907454954895
 30
0.0
 40
2.108943
100
AcDbArc
 50
110.9944180000019
 51
148.1166110000014
  0
ARC
  5
DA9
330
6B
100
AcDbEntity
  8
0
 62
     2
100
AcDbCircle
 10
690.9996473308982
 20
289.930588954895
 30
0.0
 40
2.108943
100
AcDbArc
 50
290.994418000002
 51
359.68575
  0
ARC
  5
DAA
330
6B
100
AcDbEntity
  8
0
 62
     2
100
AcDbCircle
 10
691.4603223308983
 20
289.930588954895
 30
0.0
 40
2.108943
100
AcDbArc
 50
211.8833889999986
 51
249.005581999998
  0
ARC
  5
DAB
330
6B
100
AcDbEntity
  8
0
 62
     2
100
AcDbCircle
 10
691.2299843308983
 20
290.781827954895
 30
0.0
 40
1.214070999999999
100
AcDbArc
 50
64.3651719999999
 51
115.6348280000001
  0
ARC
  5
DAC
330
6B
100
AcDbEntity
  8
0
 62
     2
100
AcDbCircle
 10
691.2299843308983
 20
289.056216954895
 30
0.0
 40
1.214070999999999
100
AcDbArc
 50
244.3651719999999
 51
295.6348280000002
  0
ARC
  5
DAD
330
6B
100
AcDbEntity
  8
0
 62
     2
100
AcDbCircle
 10
691.2299843308983
 20
290.804888954895
 30
0.0
 40
0.5958560000000001
100
AcDbArc
 50
19.48660599999897
 51
160.513394000001
  0
ARC
  5
DAE
330
6B
100
AcDbEntity
  8
0
 62
     2
100
AcDbCircle
 10
691.2299843308983
 20
289.033154954895
 30
0.0
 40
0.5958560000000001
100
AcDbArc
 50
199.4866059999989
 51
340.513394000001
  0
ARC
  5
DAF
330
6B
100
AcDbEntity
  8
0
 62
     3
100
AcDbCircle
 10
686.4875123308983
 20
267.6909619548949
 30
0.0
 40
26.04
100
AcDbArc
 50
69.50571500000245
 51
81.68998800000144
  0
ARC
  5
DB0
330
6B
100
AcDbEntity
  8
0
 62
     3
100
AcDbCircle
 10
686.4875123308983
 20
312.147081954895
 30
0.0
 40
26.04
100
AcDbArc
 50
278.3100119999986
 51
290.4942849999977
  0
ARC
  5
DB1
330
6B
100
AcDbEntity
  8
0
 62
     3
100
AcDbCircle
 10
694.7957163308982
 20
289.919021954895
 30
0.0
 40
2.31
100
AcDbArc
 50
290.4942849999977
 51
69.50571500000245
  0
ARC
  5
DB2
330
6B
100
AcDbEntity
  8
0
 62
     3
100
AcDbCircle
 10
667.4957163308984
 20
289.919021954895
 30
0.0
 40
2.31
100
AcDbArc
 50
110.4942849999976
 51
249.5057150000024
  0
ARC
  5
DB3
330
6B
100
AcDbEntity
  8
0
 62
     3
100
AcDbCircle
 10
675.8039203308983
 20
267.6909619548949
 30
0.0
 40
26.04
100
AcDbArc
 50
98.31001199999851
 51
110.4942849999976
  0
ARC
  5
DB4
330
6B
100
AcDbEntity
  8
0
 62
     3
100
AcDbCircle
 10
675.8039203308983
 20
312.147081954895
 30
0.0
 40
26.04
100
AcDbArc
 50
249.5057150000024
 51
261.6899880000015
  0
ARC
  5
DB5
330
6B
100
AcDbEntity
  8
0
 62
     3
100
AcDbCircle
 10
681.1457163308983
 20
231.119021954895
 30
0.0
 40
63.0
100
AcDbArc
 50
81.68998800000144
 51
98.31001199999851
  0
ARC
  5
DB6
330
6B
100
AcDbEntity
  8
0
 62
     3
100
AcDbCircle
 10
681.1457163308983
 20
348.719021954895
 30
0.0
 40
63.0
100
AcDbArc
 50
261.6899880000015
 51
278.3100119999986
  0
ARC
  5
DB7
330
6B
100
AcDbEntity
  8
0
 62
     3
100
AcDbCircle
 10
681.1457163308983
 20
231.119021954895
 30
0.0
 40
62.37
100
AcDbArc
 50
81.68998800000144
 51
98.31001199999851
  0
ARC
  5
DB8
330
6B
100
AcDbEntity
  8
0
 62
     3
100
AcDbCircle
 10
681.1457163308983
 20
348.719021954895
 30
0.0
 40
62.37
100
AcDbArc
 50
261.6899880000015
 51
278.3100119999986
  0
ARC
  5
DB9
330
6B
100
AcDbEntity
  8
0
 62
     3
100
AcDbCircle
 10
686.4875123308983
 20
312.147081954895
 30
0.0
 40
25.41
100
AcDbArc
 50
278.3100119999986
 51
290.4942849999977
  0
ARC
  5
DBA
330
6B
100
AcDbEntity
  8
0
 62
     3
100
AcDbCircle
 10
686.4875123308983
 20
267.6909619548949
 30
0.0
 40
25.41
100
AcDbArc
 50
69.50571500000245
 51
81.68998800000144
  0
ARC
  5
DBB
330
6B
100
AcDbEntity
  8
0
 62
     3
100
AcDbCircle
 10
694.7957163308982
 20
289.919021954895
 30
0.0
 40
1.679999999999999
100
AcDbArc
 50
290.4942849999977
 51
69.50571500000245
  0
ARC
  5
DBC
330
6B
100
AcDbEntity
  8
0
 62
     3
100
AcDbCircle
 10
667.4957163308984
 20
289.919021954895
 30
0.0
 40
1.679999999999999
100
AcDbArc
 50
110.4942849999976
 51
249.5057150000024
  0
ARC
  5
DBD
330
6B
100
AcDbEntity
  8
0
 62
     3
100
AcDbCircle
 10
675.8039203308983
 20
267.6909619548949
 30
0.0
 40
25.41
100
AcDbArc
 50
98.31001199999851
 51
110.4942849999976
  0
ARC
  5
DBE
330
6B
100
AcDbEntity
  8
0
 62
     3
100
AcDbCircle
 10
675.8039203308983
 20
312.147081954895
 30
0.0
 40
25.41
100
AcDbArc
 50
249.5057150000024
 51
261.6899880000015
  0
LINE
  5
DBF
330
6B
100
AcDbEntity
  8
0
 62
     2
100
AcDbLine
 10
685.7556773308982
 20
287.842145954895
 30
0.0
 11
683.8261653308983
 21
287.842145954895
 31
0.0
  0
LINE
  5
DC0
330
6B
100
AcDbEntity
  8
0
 62
     2
100
AcDbLine
 10
685.7556773308982
 20
288.053706954895
 30
0.0
 11
685.7556773308982
 21
287.842145954895
 31
0.0
  0
LINE
  5
DC1
330
6B
100
AcDbEntity
  8
0
 62
     2
100
AcDbLine
 10
683.6192083308985
 20
291.995799954895
 30
0.0
 11
681.6669453308983
 21
291.995799954895
 31
0.0
  0
LINE
  5
DC2
330
6B
100
AcDbEntity
  8
0
 62
     2
100
AcDbLine
 10
683.6192083308985
 20
291.995799954895
 30
0.0
 11
683.6192083308985
 21
291.784336954895
 31
0.0
  0
LINE
  5
DC3
330
6B
100
AcDbEntity
  8
0
 62
     2
100
AcDbLine
 10
683.6192083308985
 20
288.053706954895
 30
0.0
 11
683.6192083308985
 21
287.842046954895
 31
0.0
  0
LINE
  5
DC4
330
6B
100
AcDbEntity
  8
0
 62
     2
100
AcDbLine
 10
683.6192083308985
 20
287.842046954895
 30
0.0
 11
681.6669453308983
 21
287.842046954895
 31
0.0
  0
LINE
  5
DC5
330
6B
100
AcDbEntity
  8
0
 62
     2
100
AcDbLine
 10
685.7556773308982
 20
291.995898954895
 30
0.0
 11
685.7556773308982
 21
291.784336954895
 31
0.0
  0
LINE
  5
DC6
330
6B
100
AcDbEntity
  8
0
 62
     2
100
AcDbLine
 10
685.7556773308982
 20
291.995898954895
 30
0.0
 11
683.8261653308983
 21
291.995898954895
 31
0.0
  0
LINE
  5
DC7
330
6B
100
AcDbEntity
  8
0
 62
     2
100
AcDbLine
 10
683.8261653308983
 20
291.995898954895
 30
0.0
 11
683.8261653308983
 21
291.784336954895
 31
0.0
  0
LINE
  5
DC8
330
6B
100
AcDbEntity
  8
0
 62
     2
100
AcDbLine
 10
685.9700353308983
 20
288.053706954895
 30
0.0
 11
685.9700353308983
 21
287.842145954895
 31
0.0
  0
LINE
  5
DC9
330
6B
100
AcDbEntity
  8
0
 62
     2
100
AcDbLine
 10
687.9543353308982
 20
287.842145954895
 30
0.0
 11
685.9700353308983
 21
287.842145954895
 31
0.0
  0
LINE
  5
DCA
330
6B
100
AcDbEntity
  8
0
 62
     2
100
AcDbLine
 10
687.4637993308982
 20
291.328128954895
 30
0.0
 11
687.4637993308982
 21
288.5099149548951
 31
0.0
  0
LINE
  5
DCB
330
6B
100
AcDbEntity
  8
0
 62
     2
100
AcDbLine
 10
687.4637993308982
 20
288.5099149548951
 30
0.0
 11
687.6538483308983
 21
288.5099149548951
 31
0.0
  0
ARC
  5
DCC
330
6B
100
AcDbEntity
  8
0
 62
     2
100
AcDbCircle
 10
686.6820623308982
 20
289.919021954895
 30
0.0
 40
1.711709999999999
100
AcDbArc
 50
304.5919550000009
 51
55.40804499999914
  0
LINE
  5
DCD
330
6B
100
AcDbEntity
  8
0
 62
     2
100
AcDbLine
 10
687.9543353308982
 20
291.995898954895
 30
0.0
 11
685.9700353308983
 21
291.995898954895
 31
0.0
  0
LINE
  5
DCE
330
6B
100
AcDbEntity
  8
0
 62
     2
100
AcDbLine
 10
685.9700353308983
 20
291.995898954895
 30
0.0
 11
685.9700353308983
 21
291.784336954895
 31
0.0
  0
LINE
  5
DCF
330
6B
100
AcDbEntity
  8
0
 62
     2
100
AcDbLine
 10
683.8261653308983
 20
288.053706954895
 30
0.0
 11
683.8261653308983
 21
287.842145954895
 31
0.0
  0
LINE
  5
DD0
330
6B
100
AcDbEntity
  8
0
 62
     2
100
AcDbLine
 10
687.4637993308982
 20
291.328128954895
 30
0.0
 11
687.6538483308983
 21
291.328128954895
 31
0.0
  0
LINE
  5
DD1
330
6B
100
AcDbEntity
  8
0
 62
     2
100
AcDbLine
 10
675.8206393308983
 20
288.053706954895
 30
0.0
 11
675.8206363308983
 21
287.842125954895
 31
0.0
  0
LINE
  5
DD2
330
6B
100
AcDbEntity
  8
0
 62
     2
100
AcDbLine
 10
673.8911243308985
 20
287.842165954895
 30
0.0
 11
675.8206363308983
 21
287.842131954895
 31
0.0
  0
LINE
  5
DD3
330
6B
100
AcDbEntity
  8
0
 62
     2
100
AcDbLine
 10
669.5947423308985
 20
287.842145954895
 30
0.0
 11
671.1340073308982
 21
287.842145954895
 31
0.0
  0
ARC
  5
DD4
330
6B
100
AcDbEntity
  8
0
 62
     2
100
AcDbCircle
 10
664.6127993308984
 20
289.967928954895
 30
0.0
 40
14.713566
100
AcDbArc
 50
353.8660060000001
 51
357.6940340000001
  0
LINE
  5
DD5
330
6B
100
AcDbEntity
  8
0
 62
     2
100
AcDbLine
 10
678.3293793308984
 20
289.3795609548951
 30
0.0
 11
679.3144503308982
 21
289.3759159548949
 31
0.0
  0
LINE
  5
DD7
330
6B
100
AcDbEntity
  8
0
 62
     2
100
AcDbLine
 10
678.3333573308985
 20
290.4547759548949
 30
0.0
 11
679.3184283308983
 21
290.4511309548949
 31
0.0
  0
ARC
  5
DD8
330
6B
100
AcDbEntity
  8
0
 62
     2
100
AcDbCircle
 10
664.6127993308984
 20
289.967928954895
 30
0.0
 40
14.713566
100
AcDbArc
 50
1.881965999999919
 51
5.709994000000002
  0
LINE
  5
DD9
330
6B
100
AcDbEntity
  8
0
 62
     2
100
AcDbLine
 10
675.8207083308982
 20
291.995878954895
 30
0.0
 11
675.8207043308985
 21
291.784336954895
 31
0.0
  0
LINE
  5
DDA
330
6B
100
AcDbEntity
  8
0
 62
     2
100
AcDbLine
 10
673.8911963308983
 20
291.9959179548949
 30
0.0
 11
675.8207083308982
 21
291.995884954895
 31
0.0
  0
LINE
  5
DDB
330
6B
100
AcDbEntity
  8
0
 62
     2
100
AcDbLine
 10
673.8911273308982
 20
288.053706954895
 30
0.0
 11
673.8911243308985
 21
287.842165954895
 31
0.0
  0
LINE
  5
DDC
330
6B
100
AcDbEntity
  8
0
 62
     2
100
AcDbLine
 10
673.8911963308983
 20
291.9959179548949
 30
0.0
 11
673.8911923308982
 21
291.784336954895
 31
0.0
  0
LINE
  5
DDD
330
6B
100
AcDbEntity
  8
0
 62
     2
100
AcDbLine
 10
671.1340073308982
 20
288.053706954895
 30
0.0
 11
671.1340073308982
 21
287.842145954895
 31
0.0
  0
LINE
  5
DDE
330
6B
100
AcDbEntity
  8
0
 62
     2
100
AcDbLine
 10
670.6982593308983
 20
290.278033954895
 30
0.0
 11
672.2206893308983
 21
287.842145954895
 31
0.0
  0
LINE
  5
DDF
330
6B
100
AcDbEntity
  8
0
 62
     2
100
AcDbLine
 10
672.2206893308983
 20
287.842145954895
 30
0.0
 11
673.2401223308983
 21
287.842145954895
 31
0.0
  0
LINE
  5
DE0
330
6B
100
AcDbEntity
  8
0
 62
     2
100
AcDbLine
 10
673.6758703308983
 20
291.995898954895
 30
0.0
 11
673.6758703308983
 21
291.784336954895
 31
0.0
  0
LINE
  5
DE1
330
6B
100
AcDbEntity
  8
0
 62
     2
100
AcDbLine
 10
672.1366053308983
 20
291.995898954895
 30
0.0
 11
673.6758703308983
 21
291.995898954895
 31
0.0
  0
LINE
  5
DE2
330
6B
100
AcDbEntity
  8
0
 62
     2
100
AcDbLine
 10
672.1366053308983
 20
291.995898954895
 30
0.0
 11
672.1366053308983
 21
291.784336954895
 31
0.0
  0
LINE
  5
DE3
330
6B
100
AcDbEntity
  8
0
 62
     2
100
AcDbLine
 10
672.5723533308985
 20
290.114531954895
 30
0.0
 11
671.3377063308983
 21
291.995898954895
 31
0.0
  0
LINE
  5
DE4
330
6B
100
AcDbEntity
  8
0
 62
     2
100
AcDbLine
 10
669.5947423308985
 20
291.995898954895
 30
0.0
 11
671.3377063308983
 21
291.995898954895
 31
0.0
  0
LINE
  5
DE5
330
6B
100
AcDbEntity
  8
0
 62
     2
100
AcDbLine
 10
679.5109563308982
 20
291.995799954895
 30
0.0
 11
681.4632193308982
 21
291.995799954895
 31
0.0
  0
LINE
  5
DE6
330
6B
100
AcDbEntity
  8
0
 62
     2
100
AcDbLine
 10
679.5109563308982
 20
291.784336954895
 30
0.0
 11
679.5109563308982
 21
291.995799954895
 31
0.0
  0
LINE
  5
DE7
330
6B
100
AcDbEntity
  8
0
 62
     2
100
AcDbLine
 10
679.5109563308982
 20
287.842046954895
 30
0.0
 11
679.5109563308982
 21
288.053706954895
 31
0.0
  0
LINE
  5
DE8
330
6B
100
AcDbEntity
  8
0
 62
     2
100
AcDbLine
 10
679.5109563308982
 20
287.842046954895
 30
0.0
 11
681.4632193308982
 21
287.842046954895
 31
0.0
  0
LINE
  5
DE9
330
6B
100
AcDbEntity
  8
0
 62
     2
100
AcDbLine
 10
681.6669453308983
 20
288.053706954895
 30
0.0
 11
681.6669453308983
 21
287.842046954895
 31
0.0
  0
LINE
  5
DEA
330
6B
100
AcDbEntity
  8
0
 62
     2
100
AcDbLine
 10
681.4632193308982
 20
288.053706954895
 30
0.0
 11
681.4632193308982
 21
287.842046954895
 31
0.0
  0
LINE
  5
DEB
330
6B
100
AcDbEntity
  8
0
 62
     2
100
AcDbLine
 10
681.4632193308982
 20
291.784336954895
 30
0.0
 11
681.4632193308982
 21
291.995799954895
 31
0.0
  0
LINE
  5
DEC
330
6B
100
AcDbEntity
  8
0
 62
     2
100
AcDbLine
 10
681.6669453308983
 20
291.784336954895
 30
0.0
 11
681.6669453308983
 21
291.995799954895
 31
0.0
  0
LINE
  5
DED
330
6B
100
AcDbEntity
  8
0
 62
     2
100
AcDbLine
 10
669.5947423308985
 20
288.053706954895
 30
0.0
 11
669.5947423308985
 21
287.842145954895
 31
0.0
  0
LINE
  5
DEE
330
6B
100
AcDbEntity
  8
0
 62
     2
100
AcDbLine
 10
669.5947423308985
 20
291.995898954895
 30
0.0
 11
669.5947423308985
 21
291.784336954895
 31
0.0
  0
ARC
  5
DEF
330
6B
100
AcDbEntity
  8
0
 62
     2
100
AcDbCircle
 10
688.1643353308983
 20
290.3547699548949
 30
0.0
 40
1.641127999999999
100
AcDbArc
 50
17.30874899999924
 51
23.76507099999924
  0
ARC
  5
DF0
330
6B
100
AcDbEntity
  8
0
 62
     2
100
AcDbCircle
 10
686.7660623308982
 20
289.919021954895
 30
0.0
 40
3.105725999999998
100
AcDbArc
 50
342.6912510000008
 51
17.30856600000089
  0
ARC
  5
DF1
330
6B
100
AcDbEntity
  8
0
 62
     2
100
AcDbCircle
 10
688.1643353308983
 20
289.483273954895
 30
0.0
 40
1.641127999999999
100
AcDbArc
 50
336.2349290000007
 51
342.6912510000008
  0
ARC
  5
DF2
330
6B
100
AcDbEntity
  8
0
 62
     2
100
AcDbCircle
 10
687.9543353308982
 20
290.3547699548949
 30
0.0
 40
1.641127999999999
100
AcDbArc
 50
17.30874899999924
 51
90.0
  0
ARC
  5
DF3
330
6B
100
AcDbEntity
  8
0
 62
     2
100
AcDbCircle
 10
686.5560623308984
 20
289.919021954895
 30
0.0
 40
3.105725999999998
100
AcDbArc
 50
342.6912510000008
 51
17.30856600000089
  0
ARC
  5
DF4
330
6B
100
AcDbEntity
  8
0
 62
     2
100
AcDbCircle
 10
687.9543353308982
 20
289.483273954895
 30
0.0
 40
1.641127999999999
100
AcDbArc
 50
270.0
 51
342.6912510000008
  0
ARC
  5
DF5
330
6B
100
AcDbEntity
  8
0
 62
     2
100
AcDbCircle
 10
677.8303953308983
 20
289.919021954895
 30
0.0
 40
2.076875999999999
100
AcDbArc
 50
46.75288000000072
 51
89.74999799999961
  0
ARC
  5
DF6
330
6B
100
AcDbEntity
  8
0
 62
     2
100
AcDbCircle
 10
677.8303953308983
 20
289.919021954895
 30
0.0
 40
2.076875999999999
100
AcDbArc
 50
273.9763330000016
 51
312.8231200000006
  0
ARC
  5
DF7
330
6B
100
AcDbEntity
  8
0
 62
     2
100
AcDbCircle
 10
689.2722033308984
 20
289.8869609548949
 30
0.0
 40
2.755888999999998
100
AcDbArc
 50
0.6665839999999827
 51
23.90392800000036
  0
ARC
  5
DF8
330
6B
100
AcDbEntity
  8
0
 62
     2
100
AcDbCircle
 10
693.1877653308982
 20
289.8869609548949
 30
0.0
 40
2.755888999999998
100
AcDbArc
 50
156.0960719999996
 51
179.333416
  0
ARC
  5
DF9
330
6B
100
AcDbEntity
  8
0
 62
     2
100
AcDbCircle
 10
689.2722033308984
 20
289.951083954895
 30
0.0
 40
2.755888999999998
100
AcDbArc
 50
336.0960719999996
 51
359.333416
  0
ARC
  5
DFA
330
6B
100
AcDbEntity
  8
0
 62
     2
100
AcDbCircle
 10
693.1877653308982
 20
289.951083954895
 30
0.0
 40
2.755888999999998
100
AcDbArc
 50
180.666584
 51
203.9039280000003
  0
LINE
  5
DFD
330
6B
100
AcDbEntity
  8
0
 62
     3
100
AcDbLine
 10
756.8110263308982
 20
29.66261495489498
 30
0.0
 11
756.8110263308981
 21
52.66261495489496
 31
0.0
  0
LINE
  5
DFF
330
6B
100
AcDbEntity
  8
0
 62
     3
100
AcDbLine
 10
703.7574173308983
 20
22.66261495489496
 30
0.0
 11
703.7574173308983
 21
36.66261495489496
 31
0.0
  0
TEXT
  5
E01
330
6B
100
AcDbEntity
  8
0
 62
     3
100
AcDbText
 10
732.8213443308983
 20
48.86773095489493
 30
0.0
 40
2.0
  1
A
 41
0.7
100
AcDbText
  0
TEXT
  5
E02
330
6B
100
AcDbEntity
  8
0
 62
     3
100
AcDbText
 10
735.3566303308983
 20
48.86773095489493
 30
0.0
 40
2.0
  1
P
 41
0.7
100
AcDbText
  0
TEXT
  5
E03
330
6B
100
AcDbEntity
  8
0
 62
     3
100
AcDbText
 10
737.8919173308984
 20
48.86773095489493
 30
0.0
 40
2.0
  1
P
 41
0.7
100
AcDbText
  0
TEXT
  5
E04
330
6B
100
AcDbEntity
  8
0
 62
     3
100
AcDbText
 10
740.4272033308984
 20
48.86773095489493
 30
0.0
 40
2.0
  1
D
 41
0.7
100
AcDbText
  0
TEXT
  5
E05
330
6B
100
AcDbEntity
  8
0
 62
     3
100
AcDbText
 10
745.7958863308983
 20
48.86773095489493
 30
0.0
 40
2.0
  1
C
 41
0.7
100
AcDbText
  0
TEXT
  5
E06
330
6B
100
AcDbEntity
  8
0
 62
     3
100
AcDbText
 10
748.3311723308984
 20
48.86773095489493
 30
0.0
 40
2.0
  1
H
 41
0.7
100
AcDbText
  0
TEXT
  5
E07
330
6B
100
AcDbEntity
  8
0
 62
     3
100
AcDbText
 10
750.8664583308984
 20
48.86773095489493
 30
0.0
 40
2.0
  1
C
 41
0.7
100
AcDbText
  0
TEXT
  5
E08
330
6B
100
AcDbEntity
  8
0
 62
     3
100
AcDbText
 10
753.4017453308982
 20
48.86773095489493
 30
0.0
 40
2.0
  1
K
 41
0.7
100
AcDbText
  0
TEXT
  5
E09
330
6B
100
AcDbEntity
  8
0
 62
     3
100
AcDbText
 10
759.0757113308984
 20
48.86773095489493
 30
0.0
 40
2.0
  1
DESN
 41
1.216762999999998
100
AcDbText
  0
TEXT
  5
E0A
330
6B
100
AcDbEntity
  8
0
 62
     3
100
AcDbText
 10
674.0693523308983
 20
19.52123295489495
 30
0.0
 40
2.0
  1
NICHIDO IND.CO.LTD
 41
1.274876
100
AcDbText
  0
LINE
  5
E0B
330
6B
100
AcDbEntity
  8
0
 62
     3
100
AcDbLine
 10
684.4523823308983
 20
52.66261495489496
 30
0.0
 11
684.4523823308983
 21
29.66261495489498
 31
0.0
  0
LINE
  5
E0C
330
6B
100
AcDbEntity
  8
0
 62
     3
100
AcDbLine
 10
730.8110263308981
 20
52.66261495489495
 30
0.0
 11
730.8110263308982
 21
12.99689295489496
 31
0.0
  0
LINE
  5
E10
330
6B
100
AcDbEntity
  8
0
 62
     3
100
AcDbLine
 10
743.8110263308982
 20
52.66261495489496
 30
0.0
 11
743.8110263308982
 21
22.66261495489496
 31
0.0
  0
TEXT
  5
E11
330
6B
100
AcDbEntity
  8
0
 62
     3
100
AcDbText
 10
731.9234713308983
 20
23.52730195489496
 30
0.0
 40
3.2
  1
作成日
 41
1.017225999999997
100
AcDbText
  0
LINE
  5
E12
330
6B
100
AcDbEntity
  8
0
 62
     3
100
AcDbLine
 10
782.5103903308984
 20
52.66261495489496
 30
0.0
 11
671.2069473308986
 21
52.66261495489496
 31
0.0
  0
LINE
  5
E13
330
6B
100
AcDbEntity
  8
0
 62
     3
100
AcDbLine
 10
769.8110263308982
 20
29.66261495489498
 30
0.0
 11
769.8110263308982
 21
52.66261495489496
 31
0.0
  0
TEXT
  5
E14
330
6B
100
AcDbEntity
  8
0
 62
     3
100
AcDbText
 10
773.1348293308984
 20
48.95354995489493
 30
0.0
 40
1.8
  1
D
 41
0.666667
100
AcDbText
  0
TEXT
  5
E15
330
6B
100
AcDbEntity
  8
0
 62
     3
100
AcDbText
 10
775.9514583308984
 20
48.95354995489493
 30
0.0
 40
1.8
  1
E
 41
0.666667
100
AcDbText
  0
TEXT
  5
E16
330
6B
100
AcDbEntity
  8
0
 62
     3
100
AcDbText
 10
778.7680863308983
 20
48.95354995489493
 30
0.0
 40
1.8
  1
F
 41
0.666667
100
AcDbText
  0
TEXT
  5
E17
330
6B
100
AcDbEntity
  8
0
 62
     3
100
AcDbText
 10
773.1348293308984
 20
44.96099595489496
 30
0.0
 40
3.2
  1
製図
 41
1.076369
100
AcDbText
  0
LINE
  5
E18
330
6B
100
AcDbEntity
  8
0
 62
     3
100
AcDbLine
 10
671.2069473308986
 20
52.66261495489496
 30
0.0
 11
671.2069473308986
 21
12.99689295489496
 31
0.0
  0
TEXT
  5
E19
330
6B
100
AcDbEntity
  8
0
 62
     3
100
AcDbText
 10
672.5836003308983
 20
13.32935795489496
 30
0.0
 40
5.0
  1
日動工業株式会社
 41
0.833333
100
AcDbText
  0
LINE
  5
E1A
330
6B
100
AcDbEntity
  8
0
 62
     3
100
AcDbLine
 10
714.0893513308984
 20
36.66261495489496
 30
0.0
 11
714.0893513308984
 21
12.99689295489496
 31
0.0
  0
LINE
  5
E1B
330
6B
100
AcDbEntity
  8
0
 62
     3
100
AcDbLine
 10
714.0893513308984
 20
17.82975395489496
 30
0.0
 11
730.8110263308982
 21
17.82975395489496
 31
0.0
  0
TEXT
  5
E1C
330
6B
100
AcDbEntity
  8
0
 62
     3
100
AcDbText
 10
714.6759533308984
 20
18.64618395489496
 30
0.0
 40
3.2
  1
出図コード
 41
0.8356860000000001
100
AcDbText
  0
LINE
  5
E1E
330
6B
100
AcDbEntity
  8
0
 62
     3
100
AcDbLine
 10
671.2069473308986
 20
22.66261495489496
 30
0.0
 11
782.5103903308984
 21
22.66261495489496
 31
0.0
  0
LINE
  5
E20
330
6B
100
AcDbEntity
  8
0
 62
     3
100
AcDbLine
 10
671.2069473308986
 20
43.66261495489493
 30
0.0
 11
782.5103903308984
 21
43.66261495489493
 31
0.0
  0
LINE
  5
E26
330
6B
100
AcDbEntity
  8
0
 62
     3
100
AcDbLine
 10
671.2069473308986
 20
36.66261495489497
 30
0.0
 11
730.8110263308982
 21
36.66261495489496
 31
0.0
  0
LINE
  5
E2C
330
6B
100
AcDbEntity
  8
0
 62
     3
100
AcDbLine
 10
671.2069473308986
 20
29.66261495489498
 30
0.0
 11
782.5103903308984
 21
29.66261495489498
 31
0.0
  0
TEXT
  5
E2D
330
6B
100
AcDbEntity
  8
0
 62
     3
100
AcDbText
 10
714.5434053308986
 20
13.59908695489496
 30
0.0
 40
3.2
  1
ZK-A4Y
 41
0.8112849999999999
100
AcDbText
  0
LINE
  5
E2E
330
6B
100
AcDbEntity
  8
0
 62
     3
100
AcDbLine
 10
602.5103903308984
 20
289.996892954895
 30
0.0
 11
602.5103903308984
 21
12.99689295489496
 31
0.0
  0
LINE
  5
E2F
330
6B
100
AcDbEntity
  8
0
 62
     3
100
AcDbLine
 10
782.5103903308984
 20
12.99689295489496
 30
0.0
 11
782.5103903308984
 21
289.996892954895
 31
0.0
  0
LINE
  5
E30
330
6B
100
AcDbEntity
  8
0
 62
     3
100
AcDbLine
 10
782.5103903308984
 20
12.99689295489496
 30
0.0
 11
602.5103903308984
 21
12.99689295489496
 31
0.0
  0
TEXT
  5
E31
330
6B
100
AcDbEntity
  8
0
 62
     3
100
AcDbText
 10
673.0243443308983
 20
48.83214095489496
 30
0.0
 40
2.0
  1
CONPONENTS
 41
0.5331600000000001
100
AcDbText
  0
TEXT
  5
E32
330
6B
100
AcDbEntity
  8
0
 62
     3
100
AcDbText
 10
672.6746173308984
 20
29.89996395489497
 30
0.0
 40
3.0
  1
材
 41
0.833333
100
AcDbText
  0
TEXT
  5
E33
330
6B
100
AcDbEntity
  8
0
 62
     3
100
AcDbText
 10
680.2102603308985
 20
29.89996395489497
 30
0.0
 40
3.0
  1
質
 41
0.833333
100
AcDbText
  0
TEXT
  5
E34
330
6B
100
AcDbEntity
  8
0
 62
     3
100
AcDbText
 10
672.7626883308985
 20
40.52448895489496
 30
0.0
 40
2.0
  1
MODEL
 41
1.031072999999999
100
AcDbText
  0
TEXT
  5
E35
330
6B
100
AcDbEntity
  8
0
 62
     3
100
AcDbText
 10
672.6746173308984
 20
33.58227195489496
 30
0.0
 40
2.0
  1
MATERIAL
 41
0.659278
100
AcDbText
  0
TEXT
  5
E36
330
6B
100
AcDbEntity
  8
0
 62
     3
100
AcDbText
 10
703.9818983308983
 20
29.89996395489497
 30
0.0
 40
3.0
  1
備
 41
0.833333
100
AcDbText
  0
TEXT
  5
E37
330
6B
100
AcDbEntity
  8
0
 62
     3
100
AcDbText
 10
710.7149003308984
 20
29.89996395489497
 30
0.0
 40
3.0
  1
考
 41
0.833333
100
AcDbText
  0
TEXT
  5
E38
330
6B
100
AcDbEntity
  8
0
 62
     3
100
AcDbText
 10
704.3523929224756
 20
33.58227195489496
 30
0.0
 40
2.0
  1
REMARKS
 41
0.675794
100
AcDbText
  0
TEXT
  5
E39
330
6B
100
AcDbEntity
  8
0
 62
     3
100
AcDbText
 10
674.2643463308983
 20
26.66215195489496
 30
0.0
 40
2.0
  1
3AD
 41
1.42614
100
AcDbText
  0
TEXT
  5
E3A
330
6B
100
AcDbEntity
  8
0
 62
     3
100
AcDbText
 10
683.5753263308986
 20
26.82788495489497
 30
0.0
 40
2.0
  1
ANGLE
 41
1.669883999999995
100
AcDbText
  0
TEXT
  5
E3B
330
6B
100
AcDbEntity
  8
0
 62
     3
100
AcDbText
 10
704.5092133308984
 20
26.45104395489497
 30
0.0
 40
2.0
  1
SCALE
 41
0.7719630000000001
100
AcDbText
  0
TEXT
  5
E3C
330
6B
100
AcDbEntity
  8
0
 62
     3
100
AcDbText
 10
673.9504763308982
 20
22.66261495489496
 30
0.0
 40
3.0
  1
第
 41
0.833333
100
AcDbText
  0
TEXT
  5
E3D
330
6B
100
AcDbEntity
  8
0
 62
     3
100
AcDbText
 10
681.7373263308983
 20
22.66261495489496
 30
0.0
 40
3.0
  1
三
 41
0.833333
100
AcDbText
  0
TEXT
  5
E3E
330
6B
100
AcDbEntity
  8
0
 62
     3
100
AcDbText
 10
689.5241763308986
 20
22.66261495489496
 30
0.0
 40
3.0
  1
角
 41
0.833333
100
AcDbText
  0
TEXT
  5
E3F
330
6B
100
AcDbEntity
  8
0
 62
     3
100
AcDbText
 10
697.3110263308982
 20
22.66261495489496
 30
0.0
 40
3.0
  1
法
 41
0.833333
100
AcDbText
  0
TEXT
  5
E40
330
6B
100
AcDbEntity
  8
0
 62
     3
100
AcDbText
 10
704.3724183308983
 20
22.95104395489497
 30
0.0
 40
3.0
  1
尺
 41
0.833333
100
AcDbText
  0
TEXT
  5
E41
330
6B
100
AcDbEntity
  8
0
 62
     3
100
AcDbText
 10
711.1054203308982
 20
22.95104395489497
 30
0.0
 40
3.0
  1
度
 41
0.833333
100
AcDbText
  0
TEXT
  5
E42
330
6B
100
AcDbEntity
  8
0
 62
     3
100
AcDbText
 10
733.6886903308984
 20
45.12034395489496
 30
0.0
 40
3.0
  1
承認
 41
1.089472999999999
100
AcDbText
  0
TEXT
  5
E43
330
6B
100
AcDbEntity
  8
0
 62
     3
100
AcDbText
 10
746.9315713308982
 20
45.06261495489495
 30
0.0
 40
3.0
  1
検図
 41
0.931761
100
AcDbText
  0
TEXT
  5
E44
330
6B
100
AcDbEntity
  8
0
 62
     3
100
AcDbText
 10
759.9319673308984
 20
45.06261495489495
 30
0.0
 40
3.0
  1
設
 41
0.833333
100
AcDbText
  0
TEXT
  5
E45
330
6B
100
AcDbEntity
  8
0
 62
     3
100
AcDbText
 10
764.4218353308982
 20
45.06261495489495
 30
0.0
 40
3.0
  1
計
 41
0.833333
100
AcDbText
  0
TEXT
  5
E46
330
6B
100
AcDbEntity
  8
0
 62
     3
100
AcDbText
 10
672.9558163308983
 20
44.35137095489497
 30
0.0
 40
3.0
  1
品
 41
0.833333
100
AcDbText
  0
TEXT
  5
E47
330
6B
100
AcDbEntity
  8
0
 62
     3
100
AcDbText
 10
680.4914583308985
 20
44.35137095489497
 30
0.0
 40
3.0
  1
名
 41
0.833333
100
AcDbText
  0
TEXT
  5
E48
330
6B
100
AcDbEntity
  8
0
 62
     3
100
AcDbText
 10
672.7626883308985
 20
36.89222895489497
 30
0.0
 40
3.0
  1
型
 41
0.833333
100
AcDbText
  0
TEXT
  5
E49
330
6B
100
AcDbEntity
  8
0
 62
     3
100
AcDbText
 10
680.3107793308984
 20
36.89222895489497
 30
0.0
 40
3.0
  1
式
 41
0.833333
100
AcDbText
  0
LINE
  5
E4A
330
6B
100
AcDbEntity
  8
0
 62
     3
100
AcDbLine
 10
697.8380523308983
 20
289.996892954895
 30
0.0
 11
782.5103903308984
 21
289.996892954895
 31
0.0
  0
LINE
  5
E4B
330
6B
100
AcDbEntity
  8
0
 62
     3
100
AcDbLine
 10
664.4253063308982
 20
289.996892954895
 30
0.0
 11
602.5103903308984
 21
289.996892954895
 31
0.0
  0
LINE
  5
E4C
330
6B
100
AcDbEntity
  8
0
 62
     7
100
AcDbLine
 10
709.0158233308984
 20
285.4915039548949
 30
0.0
 11
709.0158233308984
 21
270.6415039548949
 31
0.0
  0
LINE
  5
E4D
330
6B
100
AcDbEntity
  8
0
 62
     7
100
AcDbLine
 10
782.5103903308984
 20
275.591503954895
 30
0.0
 11
698.9103903308984
 21
275.591503954895
 31
0.0
  0
LINE
  5
E4E
330
6B
100
AcDbEntity
  8
0
 62
     7
100
AcDbLine
 10
770.9128653308986
 20
285.4915039548949
 30
0.0
 11
770.9128653308986
 21
270.6415039548949
 31
0.0
  0
LINE
  5
E4F
330
6B
100
AcDbEntity
  8
0
 62
     7
100
AcDbLine
 10
726.6211493308984
 20
285.4915039548949
 30
0.0
 11
726.6211493308984
 21
270.6415039548949
 31
0.0
  0
LINE
  5
E50
330
6B
100
AcDbEntity
  8
0
 62
     7
100
AcDbLine
 10
698.9103903308984
 20
280.5415039548949
 30
0.0
 11
782.5103903308984
 21
280.5415039548949
 31
0.0
  0
TEXT
  5
E51
330
6B
100
AcDbEntity
  8
0
 62
     3
100
AcDbText
 10
718.6004970148251
 20
23.55061195489497
 30
0.0
 40
3.2
  1
1/1
  7
高3.2
100
AcDbText
  0
TEXT
  5
E52
330
6B
100
AcDbEntity
  8
0
 62
     3
100
AcDbText
 10
716.9577113308982
 20
30.21566495489496
 30
0.0
 40
3.2
  1
交換球
  7
高3.2
100
AcDbText
  0
LINE
  5
E53
330
6B
100
AcDbEntity
  8
0
 62
     7
100
AcDbLine
 10
703.7280943308983
 20
279.802258954895
 30
0.0
 11
701.8280943308982
 21
276.5113619548949
 31
0.0
  0
LINE
  5
E54
330
6B
100
AcDbEntity
  8
0
 62
     7
100
AcDbLine
 10
703.7280943308983
 20
279.802258954895
 30
0.0
 11
705.6280943308983
 21
276.5113619548949
 31
0.0
  0
LINE
  5
E55
330
6B
100
AcDbEntity
  8
0
 62
     7
100
AcDbLine
 10
701.8280943308982
 20
276.5113619548949
 30
0.0
 11
705.6280943308983
 21
276.5113619548949
 31
0.0
  0
LINE
  5
E56
330
6B
100
AcDbEntity
  8
0
 62
     7
100
AcDbLine
 10
703.7280943308983
 20
274.646048954895
 30
0.0
 11
701.8280943308982
 21
271.3551519548949
 31
0.0
  0
LINE
  5
E57
330
6B
100
AcDbEntity
  8
0
 62
     7
100
AcDbLine
 10
703.7280943308983
 20
274.646048954895
 30
0.0
 11
705.6280943308983
 21
271.3551519548949
 31
0.0
  0
LINE
  5
E58
330
6B
100
AcDbEntity
  8
0
 62
     7
100
AcDbLine
 10
701.8280943308982
 20
271.3551519548949
 30
0.0
 11
705.6280943308983
 21
271.3551519548949
 31
0.0
  0
TEXT
  5
E59
330
6B
100
AcDbEntity
  8
0
 62
     3
100
AcDbText
 10
685.8769983308982
 20
44.55351895489495
 30
0.0
 40
4.5
  1
インバーター式蛍光灯
 41
0.8
  7
高4.5
100
AcDbText
  0
TEXT
  5
E5A
330
6B
100
AcDbEntity
  8
0
 62
     3
100
AcDbText
 10
671.3185133308985
 20
54.38304495489497
 30
0.0
 40
4.5
  1
トルネード型蛍光灯
  7
高4.5
100
AcDbText
  0
LINE
  5
E5B
330
6B
100
AcDbEntity
  8
0
 62
     3
100
AcDbLine
 10
756.8110263308982
 20
52.66261495489496
 30
0.0
 11
756.8110263308982
 21
58.66261495489496
 31
0.0
  0
LINE
  5
E5C
330
6B
100
AcDbEntity
  8
0
 62
     3
100
AcDbLine
 10
730.8110263308982
 20
52.66261495489496
 30
0.0
 11
730.8110263308982
 21
58.66261495489496
 31
0.0
  0
LINE
  5
E5D
330
6B
100
AcDbEntity
  8
0
 62
     3
100
AcDbLine
 10
782.5103903308984
 20
58.66261495489496
 30
0.0
 11
730.8110263308982
 21
58.66261495489496
 31
0.0
  0
TEXT
  5
E5E
330
6B
100
AcDbEntity
  8
0
 62
     3
100
AcDbText
 10
736.8066253308983
 20
53.45896395489496
 30
0.0
 40
4.5
  1
コード
  7
高4.5
100
AcDbText
  0
TEXT
  5
E5F
330
6B
100
AcDbEntity
  8
0
 62
     3
100
AcDbText
 10
693.7076683308982
 20
37.27698495489497
 30
0.0
 40
4.5
  1
F24W-T
  7
高4.5
100
AcDbText
  0
TEXT
  5
E60
330
6B
100
AcDbEntity
  8
0
 62
     3
100
AcDbText
 10
737.2232320032408
 20
14.08929766198718
 30
0.0
 40
6.299999999999998
  1
F24W-T
  7
高6.3
100
AcDbText
  0
TEXT
  5
E61
330
6B
100
AcDbEntity
  8
0
 62
     3
100
AcDbText
 10
747.3945753308984
 20
23.43703095489496
 30
0.0
 40
3.2
  1
2008.08.28
  7
高3.2
100
AcDbText
  0
TEXT
  5
E62
330
6B
100
AcDbEntity
  8
0
 62
     3
100
AcDbText
 10
758.7981733308981
 20
53.30675195489496
 30
0.0
 40
4.5
  1
8994
  7
高4.5
100
AcDbText
  0
TEXT
  5
E63
330
6B
100
AcDbEntity
  8
0
  6
Continuous
100
AcDbText
 10
710.5158233308982
 20
276.091503954895
 30
0.0
 40
2.5
  1
13.09.27
  7
高2.5
100
AcDbText
  0
TEXT
  5
E64
330
6B
100
AcDbEntity
  8
0
  6
Continuous
100
AcDbText
 10
728.1211493308984
 20
276.091503954895
 30
0.0
 40
2.5
  1
形状および仕様変更
  7
高2.5
100
AcDbText
  0
TEXT
  5
E65
330
6B
100
AcDbEntity
  8
0
  6
Continuous
100
AcDbText
 10
772.4128653308986
 20
276.091503954895
 30
0.0
 40
2.5
  1
今村
  7
高2.5
100
AcDbText
  0
LINE
  5
E66
330
6B
100
AcDbEntity
  8
0
 62
     3
100
AcDbLine
 10
701.7387957253561
 20
207.1319171957204
 30
0.0
 11
701.7387957253561
 21
117.1319171957206
 31
0.0
  0
TEXT
  5
E67
330
6B
100
AcDbEntity
  8
0
 62
     3
100
AcDbText
 10
713.9471443216855
 20
209.751940197253
 30
0.0
 40
4.5
  1
主　　　仕　　　様
  7
高4.5
100
AcDbText
  0
TEXT
  5
E68
330
6B
100
AcDbEntity
  8
0
 62
     3
100
AcDbText
 10
703.0245100110702
 20
201.9890600528633
 30
0.0
 40
3.2
  1
型　　　式
  7
高3.2
100
AcDbText
  0
TEXT
  5
E69
330
6B
100
AcDbEntity
  8
0
 62
     3
100
AcDbText
 10
703.0245100110702
 20
195.9890600528631
 30
0.0
 40
3.2
  1
定格　電圧
  7
高3.2
100
AcDbText
  0
TEXT
  5
E6A
330
6B
100
AcDbEntity
  8
0
 62
     3
100
AcDbText
 10
703.0245100110702
 20
189.9890600528631
 30
0.0
 40
3.2
  1
消費　電力
  7
高3.2
100
AcDbText
  0
TEXT
  5
E6B
330
6B
100
AcDbEntity
  8
0
 62
     3
100
AcDbText
 10
703.0245100110702
 20
177.9890600528633
 30
0.0
 40
3.2
  1
定格　光束
  7
高3.2
100
AcDbText
  0
TEXT
  5
E6C
330
6B
100
AcDbEntity
  8
0
 62
     3
100
AcDbText
 10
703.0245100110702
 20
129.9890600528635
 30
0.0
 40
3.2
  1
寿　　　命
  7
高3.2
100
AcDbText
  0
TEXT
  5
E6D
330
6B
100
AcDbEntity
  8
0
 62
     3
100
AcDbText
 10
703.0245100110702
 20
123.9890600528633
 30
0.0
 40
3.2
  1
口　　　金
  7
高3.2
100
AcDbText
  0
TEXT
  5
E6E
330
6B
100
AcDbEntity
  8
0
 62
     3
100
AcDbText
 10
703.0245100110702
 20
117.9890600528633
 30
0.0
 40
3.2
  1
質　　　量
  7
高3.2
100
AcDbText
  0
TEXT
  5
E6F
330
6B
100
AcDbEntity
  8
0
 62
     3
100
AcDbText
 10
727.7937436265048
 20
123.9890600528633
 30
0.0
 40
3.2
  1
E26
  7
高3.2
100
AcDbText
  0
LINE
  5
E70
330
6B
100
AcDbEntity
  8
0
 62
     3
100
AcDbLine
 10
772.8043533062161
 20
117.1319171957206
 30
0.0
 11
772.8043533062161
 21
207.1319171957204
 31
0.0
  0
LINE
  5
E71
330
6B
100
AcDbEntity
  8
0
 62
     7
100
AcDbLine
 10
726.5080293407907
 20
207.1319171957204
 30
0.0
 11
726.5080293407907
 21
117.1319171957206
 31
0.0
  0
LINE
  5
E72
330
6B
100
AcDbEntity
  8
0
 62
     7
100
AcDbLine
 10
713.8888067253557
 20
208.5858991957204
 30
0.0
 11
761.4622683581277
 21
208.5858991957204
 31
0.0
  0
TEXT
  5
E73
330
6B
100
AcDbEntity
  8
0
 62
     3
100
AcDbText
 10
727.7937436265048
 20
189.9890600528631
 30
0.0
 40
3.2
  1
21.5W
  7
高3.2
100
AcDbText
  0
TEXT
  5
E74
330
6B
100
AcDbEntity
  8
0
 62
     3
100
AcDbText
 10
727.7937436265048
 20
177.9890600528633
 30
0.0
 40
3.2
  1
1320Lm
  7
高3.2
100
AcDbText
  0
TEXT
  5
E75
330
6B
100
AcDbEntity
  8
0
 62
     3
100
AcDbText
 10
727.7937436265048
 20
129.9890600528635
 30
0.0
 40
3.2
  1
約8000時間
  7
高3.2
100
AcDbText
  0
TEXT
  5
E76
330
6B
100
AcDbEntity
  8
0
 62
     3
100
AcDbText
 10
727.7937436265048
 20
117.9890600528633
 30
0.0
 40
3.2
  1
83g
  7
高3.2
100
AcDbText
  0
TEXT
  5
E77
330
6B
100
AcDbEntity
  8
0
 62
     3
100
AcDbText
 10
727.7937436265051
 20
195.9890600528631
 30
0.0
 40
3.2
  1
AC100V(50/60Hz)
  7
高3.2
100
AcDbText
  0
TEXT
  5
E78
330
6B
100
AcDbEntity
  8
0
 62
     3
100
AcDbText
 10
727.7937436265051
 20
201.9890600528633
 30
0.0
 40
3.2
  1
F24W-T
  7
高3.2
100
AcDbText
  0
LINE
  5
E79
330
6B
100
AcDbEntity
  8
0
 62
     3
100
AcDbLine
 10
701.7387957253561
 20
207.1319171957204
 30
0.0
 11
772.8043533062161
 21
207.1319171957204
 31
0.0
  0
LINE
  5
E7A
330
6B
100
AcDbEntity
  8
0
 62
     7
100
AcDbLine
 10
701.7387957253561
 20
201.1319171957204
 30
0.0
 11
772.8043533062161
 21
201.1319171957204
 31
0.0
  0
LINE
  5
E7B
330
6B
100
AcDbEntity
  8
0
 62
     7
100
AcDbLine
 10
701.7387957253561
 20
183.1319171957199
 30
0.0
 11
772.8043533062161
 21
183.1319171957199
 31
0.0
  0
LINE
  5
E7C
330
6B
100
AcDbEntity
  8
0
 62
     7
100
AcDbLine
 10
701.7387957253561
 20
177.1319171957204
 30
0.0
 11
772.8043533062161
 21
177.1319171957204
 31
0.0
  0
LINE
  5
E7D
330
6B
100
AcDbEntity
  8
0
 62
     7
100
AcDbLine
 10
701.7387957253556
 20
129.1319171957207
 30
0.0
 11
772.8043533062158
 21
129.1319171957207
 31
0.0
  0
LINE
  5
E7E
330
6B
100
AcDbEntity
  8
0
 62
     7
100
AcDbLine
 10
701.7387957253556
 20
123.1319171957206
 30
0.0
 11
772.8043533062158
 21
123.1319171957206
 31
0.0
  0
LINE
  5
E7F
330
6B
100
AcDbEntity
  8
0
 62
     7
100
AcDbLine
 10
701.7387957253556
 20
195.1319171957202
 30
0.0
 11
772.8043533062161
 21
195.1319171957202
 31
0.0
  0
TEXT
  5
E80
330
6B
100
AcDbEntity
  8
0
 62
     3
100
AcDbText
 10
703.0245100110702
 20
171.9890600528632
 30
0.0
 40
3.2
  1
照度
  7
高3.2
100
AcDbText
  0
TEXT
  5
E81
330
6B
100
AcDbEntity
  8
0
 62
     3
100
AcDbText
 10
727.7937436265048
 20
171.9890600528632
 30
0.0
 40
3.2
  1
上91／横103Lx
  7
高3.2
100
AcDbText
  0
LINE
  5
E82
330
6B
100
AcDbEntity
  8
0
 62
     7
100
AcDbLine
 10
701.7387957253556
 20
147.1319171957204
 30
0.0
 11
772.8043533062161
 21
147.1319171957204
 31
0.0
  0
TEXT
  5
E83
330
6B
100
AcDbEntity
  8
0
 62
     3
100
AcDbText
 10
703.0245100110702
 20
141.9890600528634
 30
0.0
 40
3.2
  1
色　温　度
  7
高3.2
100
AcDbText
  0
TEXT
  5
E84
330
6B
100
AcDbEntity
  8
0
 62
     3
100
AcDbText
 10
727.7937436265048
 20
141.9890600528634
 30
0.0
 40
3.2
  1
6500K
  7
高3.2
100
AcDbText
  0
LINE
  5
E85
330
6B
100
AcDbEntity
  8
0
 62
     7
100
AcDbLine
 10
701.7387957253556
 20
141.1319171957203
 30
0.0
 11
772.8043533062161
 21
141.1319171957201
 31
0.0
  0
TEXT
  5
E86
330
6B
100
AcDbEntity
  8
0
 62
     3
100
AcDbText
 10
703.0245100110702
 20
135.9890600528635
 30
0.0
 40
3.2
  1
使用環境温度
  7
高3.2
100
AcDbText
  0
TEXT
  5
E87
330
6B
100
AcDbEntity
  8
0
 62
     3
100
AcDbText
 10
727.7937436265048
 20
135.9890600528635
 30
0.0
 40
3.2
  1
-10～50℃
  7
高3.2
100
AcDbText
  0
LINE
  5
E88
330
6B
100
AcDbEntity
  8
0
 62
     7
100
AcDbLine
 10
701.7387957253556
 20
135.1319171957207
 30
0.0
 11
772.8043533062161
 21
135.1319171957207
 31
0.0
  0
TEXT
  5
E89
330
6B
100
AcDbEntity
  8
0
 62
     7
100
AcDbText
 10
697.4853189935287
 20
111.1192988931319
 30
0.0
 40
2.5
  1
注１）：寿命は光束が70%%%まで低下するまでの時間です。
  7
高2.5
100
AcDbText
  0
TEXT
  5
E8A
330
6B
100
AcDbEntity
  8
0
 62
     7
100
AcDbText
 10
697.4853189935287
 20
106.9912647651278
 30
0.0
 40
2.5
  1
　　　　表示は設計値であり、製品の寿命を保証するものでは
  7
高2.5
100
AcDbText
  0
TEXT
  5
E8B
330
6B
100
AcDbEntity
  8
0
 62
     7
100
AcDbText
 10
697.4853189935287
 20
103.455577102351
 30
0.0
 40
2.5
  1
　　　　ありません。
  7
高2.5
100
AcDbText
  0
TEXT
  5
E8C
330
6B
100
AcDbEntity
  8
0
 62
     7
100
AcDbText
 10
697.5838072033536
 20
99.15379521677053
 30
0.0
 40
2.5
  1
注２）：照度は反射率などを含む当社実測値の為、
  7
高2.5
100
AcDbText
  0
TEXT
  5
E8D
330
6B
100
AcDbEntity
  8
0
 62
     7
100
AcDbText
 10
697.0670768541464
 20
95.37120036608163
 30
0.0
 40
2.5
  1
　　　　使用環境下により異なります。
  7
高2.5
100
AcDbText
  0
LINE
  5
E8E
330
6B
100
AcDbEntity
  8
0
 62
     7
100
AcDbLine
 10
712.6520110635096
 20
171.1319171957204
 30
0.0
 11
772.8043533062161
 21
171.1319171957204
 31
0.0
  0
TEXT
  5
E8F
330
6B
100
AcDbEntity
  8
0
 62
     3
100
AcDbText
 10
727.7937436265048
 20
165.9890600528632
 30
0.0
 40
3.2
  1
上25／横28Lx
  7
高3.2
100
AcDbText
  0
LINE
  5
E90
330
6B
100
AcDbEntity
  8
0
 62
     7
100
AcDbLine
 10
712.6520110635096
 20
165.1319171957204
 30
0.0
 11
772.8043533062161
 21
165.1319171957204
 31
0.0
  0
TEXT
  5
E91
330
6B
100
AcDbEntity
  8
0
 62
     3
100
AcDbText
 10
727.7937436265048
 20
159.9890600528634
 30
0.0
 40
3.2
  1
上12／横13Lx
  7
高3.2
100
AcDbText
  0
LINE
  5
E92
330
6B
100
AcDbEntity
  8
0
 62
     7
100
AcDbLine
 10
712.6520110635096
 20
159.1319171957203
 30
0.0
 11
772.8043533062161
 21
159.1319171957202
 31
0.0
  0
TEXT
  5
E93
330
6B
100
AcDbEntity
  8
0
 62
     3
100
AcDbText
 10
727.7937436265048
 20
153.9890600528634
 30
0.0
 40
3.2
  1
上7／横8Lx
  7
高3.2
100
AcDbText
  0
LINE
  5
E94
330
6B
100
AcDbEntity
  8
0
 62
     7
100
AcDbLine
 10
712.6520110635096
 20
153.1319171957204
 30
0.0
 11
772.8043533062161
 21
153.1319171957204
 31
0.0
  0
TEXT
  5
E95
330
6B
100
AcDbEntity
  8
0
 62
     3
100
AcDbText
 10
727.7937436265048
 20
147.9890600528634
 30
0.0
 40
3.2
  1
上5／横5Lx
  7
高3.2
100
AcDbText
  0
TEXT
  5
E96
330
6B
100
AcDbEntity
  8
0
 62
     3
100
AcDbText
 10
715.3514858611292
 20
171.9890600528632
 30
0.0
 40
3.2
  1
(1m)
  7
高3.2
100
AcDbText
  0
TEXT
  5
E97
330
6B
100
AcDbEntity
  8
0
 62
     3
100
AcDbText
 10
715.3514858611292
 20
165.9890600528632
 30
0.0
 40
3.2
  1
(2m)
  7
高3.2
100
AcDbText
  0
TEXT
  5
E98
330
6B
100
AcDbEntity
  8
0
 62
     3
100
AcDbText
 10
715.3514858611295
 20
159.9890600528634
 30
0.0
 40
3.2
  1
(3m)
  7
高3.2
100
AcDbText
  0
TEXT
  5
E99
330
6B
100
AcDbEntity
  8
0
 62
     3
100
AcDbText
 10
715.3514858611295
 20
153.9890600528634
 30
0.0
 40
3.2
  1
(4m)
  7
高3.2
100
AcDbText
  0
TEXT
  5
E9A
330
6B
100
AcDbEntity
  8
0
 62
     3
100
AcDbText
 10
715.3514858611292
 20
147.9890600528634
 30
0.0
 40
3.2
  1
(5m)
  7
高3.2
100
AcDbText
  0
LINE
  5
E9B
330
6B
100
AcDbEntity
  8
0
 62
     7
100
AcDbLine
 10
712.6520110635096
 20
147.1319171957204
 30
0.0
 11
712.6520110635096
 21
177.1319171957204
 31
0.0
  0
TEXT
  5
E9C
330
6B
100
AcDbEntity
  8
0
 62
     3
100
AcDbText
 10
703.0245100110702
 20
183.9890600528629
 30
0.0
 40
3.2
  1
定格　電流
  7
高3.2
100
AcDbText
  0
TEXT
  5
E9D
330
6B
100
AcDbEntity
  8
0
 62
     3
100
AcDbText
 10
727.7937436265048
 20
183.9890600528629
 30
0.0
 40
3.2
  1
0.38A
  7
高3.2
100
AcDbText
  0
LINE
  5
E9E
330
6B
100
AcDbEntity
  8
0
 62
     7
100
AcDbLine
 10
701.7387957253556
 20
189.1319171957199
 30
0.0
 11
772.8043533062161
 21
189.1319171957199
 31
0.0
  0
LINE
  5
E9F
330
6B
100
AcDbEntity
  8
0
 62
     3
100
AcDbLine
 10
701.7387957253556
 20
117.1319171957206
 30
0.0
 11
772.8043533062158
 21
117.1319171957206
 31
0.0
  0
LINE
  5
EA0
330
6B
100
AcDbEntity
  8
0
100
AcDbLine
 10
652.8025812128593
 20
110.9540179548952
 30
0.0
 11
652.8025812128593
 21
110.6043829548946
 31
0.0
  0
LINE
  5
EA1
330
6B
100
AcDbEntity
  8
0
100
AcDbLine
 10
652.8025812128593
 20
106.9540179548949
 30
0.0
 11
652.8025812128593
 21
106.6043829548946
 31
0.0
  0
LINE
  5
EA2
330
6B
100
AcDbEntity
  8
0
100
AcDbLine
 10
652.8025812128593
 20
102.9540179548949
 30
0.0
 11
652.8025812128593
 21
102.6043829548946
 31
0.0
  0
LINE
  5
EA3
330
6B
100
AcDbEntity
  8
0
100
AcDbLine
 10
675.4692482128595
 20
113.0259769548952
 30
0.0
 11
675.4692482128595
 21
112.6047949548949
 31
0.0
  0
LINE
  5
EA4
330
6B
100
AcDbEntity
  8
0
100
AcDbLine
 10
675.4692482128595
 20
108.9536069548949
 30
0.0
 11
675.4692482128595
 21
108.6047949548949
 31
0.0
  0
LINE
  5
EA5
330
6B
100
AcDbEntity
  8
0
100
AcDbLine
 10
675.4692482128595
 20
104.9536069548949
 30
0.0
 11
675.4692482128595
 21
104.6047949548948
 31
0.0
  0
LINE
  5
EA6
330
6B
100
AcDbEntity
  8
0
100
AcDbLine
 10
669.1359147128596
 20
95.39881795489497
 30
0.0
 11
672.1359147128595
 21
98.89881795489497
 31
0.0
  0
LINE
  5
EA7
330
6B
100
AcDbEntity
  8
0
100
AcDbLine
 10
659.1359147128595
 20
95.39881795489497
 30
0.0
 11
656.1359147128595
 21
98.89881795489497
 31
0.0
  0
ARC
  5
EA8
330
6B
100
AcDbEntity
  8
0
100
AcDbCircle
 10
652.4752662128593
 20
104.7792009548953
 30
0.0
 40
1.333333
100
AcDbArc
 50
95.40479299998748
 51
264.5952070000126
  0
ARC
  5
EA9
330
6B
100
AcDbEntity
  8
0
100
AcDbCircle
 10
652.3025812128593
 20
102.9540179548949
 30
0.0
 40
0.5
100
AcDbArc
 50
0.0
 51
84.59520700001254
  0
ARC
  5
EAA
330
6B
100
AcDbEntity
  8
0
100
AcDbCircle
 10
652.3025812128593
 20
106.6043829548946
 30
0.0
 40
0.5
100
AcDbArc
 50
275.4047929999874
 51
0.0
  0
ARC
  5
EAB
330
6B
100
AcDbEntity
  8
0
100
AcDbCircle
 10
675.8009682128593
 20
102.7792009548951
 30
0.0
 40
1.333333
100
AcDbArc
 50
270.0
 51
84.73345899998738
  0
ARC
  5
EAC
330
6B
100
AcDbEntity
  8
0
100
AcDbCircle
 10
675.9692482128592
 20
104.6047949548948
 30
0.0
 40
0.5
100
AcDbArc
 50
180.0
 51
264.7334589999874
  0
ARC
  5
EAD
330
6B
100
AcDbEntity
  8
0
100
AcDbCircle
 10
675.8009682128593
 20
106.7792009548951
 30
0.0
 40
1.333333
100
AcDbArc
 50
275.2665410000126
 51
84.73345899998738
  0
ARC
  5
EAE
330
6B
100
AcDbEntity
  8
0
100
AcDbCircle
 10
675.9692482128592
 20
104.9536069548949
 30
0.0
 40
0.5
100
AcDbArc
 50
95.26654100001259
 51
180.0
  0
ARC
  5
EAF
330
6B
100
AcDbEntity
  8
0
100
AcDbCircle
 10
675.9692482128592
 20
108.6047949548949
 30
0.0
 40
0.5
100
AcDbArc
 50
180.0
 51
264.7334589999874
  0
ARC
  5
EB0
330
6B
100
AcDbEntity
  8
0
100
AcDbCircle
 10
675.8009682128593
 20
110.7792009548951
 30
0.0
 40
1.333333
100
AcDbArc
 50
275.2665410000126
 51
84.73345899998738
  0
ARC
  5
EB1
330
6B
100
AcDbEntity
  8
0
100
AcDbCircle
 10
675.9692482128592
 20
108.9536069548949
 30
0.0
 40
0.5
100
AcDbArc
 50
95.26654100001259
 51
180.0
  0
ARC
  5
EB2
330
6B
100
AcDbEntity
  8
0
100
AcDbCircle
 10
675.9692482128592
 20
112.6047949548949
 30
0.0
 40
0.5
100
AcDbArc
 50
180.0
 51
264.7334589999874
  0
ARC
  5
EB3
330
6B
100
AcDbEntity
  8
0
100
AcDbCircle
 10
675.9692482128592
 20
113.0259769548952
 30
0.0
 40
0.5
100
AcDbArc
 50
93.18486299999795
 51
180.0
  0
ARC
  5
EB4
330
6B
100
AcDbEntity
  8
0
100
AcDbCircle
 10
652.3025812128593
 20
110.9540179548952
 30
0.0
 40
0.5
100
AcDbArc
 50
0.0
 51
84.59520700001254
  0
ARC
  5
EB5
330
6B
100
AcDbEntity
  8
0
100
AcDbCircle
 10
652.4752662128593
 20
108.7792009548953
 30
0.0
 40
1.333333
100
AcDbArc
 50
95.40479299998748
 51
264.5952070000126
  0
ARC
  5
EB6
330
6B
100
AcDbEntity
  8
0
100
AcDbCircle
 10
652.3025812128593
 20
106.9540179548949
 30
0.0
 40
0.5
100
AcDbArc
 50
0.0
 51
84.59520700001254
  0
ARC
  5
EB7
330
6B
100
AcDbEntity
  8
0
100
AcDbCircle
 10
652.3025812128593
 20
110.6043829548946
 30
0.0
 40
0.5
100
AcDbArc
 50
275.4047929999874
 51
0.0
  0
LINE
  5
EB8
330
6B
100
AcDbEntity
  8
0
100
AcDbLine
 10
675.9190162128592
 20
113.5244189548947
 30
0.0
 11
652.5933142128592
 21
111.4511039548949
 31
0.0
  0
LINE
  5
EB9
330
6B
100
AcDbEntity
  8
0
100
AcDbLine
 10
675.6870632128594
 20
112.1076599548949
 30
0.0
 11
652.3613602128592
 21
110.1076599548949
 31
0.0
  0
LINE
  5
EBA
330
6B
100
AcDbEntity
  8
0
100
AcDbLine
 10
675.9148732128592
 20
109.4507419548948
 30
0.0
 11
652.5891712128597
 21
107.4507419548949
 31
0.0
  0
LINE
  5
EBB
330
6B
100
AcDbEntity
  8
0
100
AcDbLine
 10
675.6870632128594
 20
108.1076599548949
 30
0.0
 11
652.3613602128592
 21
106.1076599548949
 31
0.0
  0
LINE
  5
EBC
330
6B
100
AcDbEntity
  8
0
100
AcDbLine
 10
675.9148732128592
 20
105.4507419548948
 30
0.0
 11
652.5891712128597
 21
103.4507419548949
 31
0.0
  0
LINE
  5
EBD
330
6B
100
AcDbEntity
  8
0
100
AcDbLine
 10
675.6870632128594
 20
104.1076599548949
 30
0.0
 11
652.3561493400493
 21
102.1072131625464
 31
0.0
  0
LINE
  5
EBE
330
6B
100
AcDbEntity
  8
0
100
AcDbLine
 10
652.1359142128592
 20
119.3988179548949
 30
0.0
 11
652.1359142128592
 21
115.3988179548949
 31
0.0
  0
LINE
  5
EBF
330
6B
100
AcDbEntity
  8
0
100
AcDbLine
 10
676.1359142128592
 20
119.3988179548949
 30
0.0
 11
676.1359142128592
 21
115.3988179548949
 31
0.0
  0
ARC
  5
EC0
330
6B
100
AcDbEntity
  8
0
100
AcDbCircle
 10
652.4752662128593
 20
112.8154869548952
 30
0.0
 40
1.333333
100
AcDbArc
 50
95.40479299998748
 51
264.5952070000126
  0
LINE
  5
EC1
330
6B
100
AcDbEntity
  8
0
100
AcDbLine
 10
666.9967460003674
 20
115.3988179548949
 30
0.0
 11
652.3613602128592
 21
114.1439459548949
 31
0.0
  0
LINE
  5
EC2
330
6B
100
AcDbEntity
  8
0
100
AcDbLine
 10
676.1359142128592
 20
115.3988179548949
 30
0.0
 11
652.1359142128592
 21
115.3988179548949
 31
0.0
  0
ARC
  5
EC3
330
6B
100
AcDbEntity
  8
0
100
AcDbCircle
 10
675.7427112836173
 20
114.475214129402
 30
0.0
 40
1.003818992662016
100
AcDbArc
 50
280.3671454662602
 51
66.93924410986354
  0
ARC
  5
EC4
330
6B
100
AcDbEntity
  8
0
100
AcDbCircle
 10
651.7211021058732
 20
114.6766068067287
 30
0.0
 40
0.8328613489872696
100
AcDbArc
 50
320.2413360786364
 51
60.12849002510869
  0
LINE
  5
EC5
330
6B
100
AcDbEntity
  8
0
100
AcDbLine
 10
673.5888647128595
 20
98.89881795489497
 30
0.0
 11
654.6829647128593
 21
98.89881795489497
 31
0.0
  0
LINE
  5
EC6
330
6B
100
AcDbEntity
  8
0
100
AcDbLine
 10
669.1359147128596
 20
95.39881795489497
 30
0.0
 11
659.1359147128595
 21
95.39881795489497
 31
0.0
  0
LINE
  5
EC7
330
6B
100
AcDbEntity
  8
0
100
AcDbLine
 10
675.8009682128593
 20
101.4458679548949
 30
0.0
 11
652.3844500581352
 21
101.4458679548949
 31
0.0
  0
ARC
  5
EC8
330
6B
100
AcDbEntity
  8
0
100
AcDbCircle
 10
652.3025812128593
 20
102.6043829548946
 30
0.0
 40
0.5
100
AcDbArc
 50
275.4047929999874
 51
0.0
  0
ARC
  5
EC9
330
6B
100
AcDbEntity
  8
0
100
AcDbCircle
 10
652.3844500581352
 20
101.77714609017
 30
0.0
 40
0.3312781352750566
100
AcDbArc
 50
94.90068724745823
 51
270.0
  0
ARC
  5
ECA
330
6B
100
AcDbEntity
  8
0
100
AcDbCircle
 10
654.6829647128593
 20
100.9458679548949
 30
0.0
 40
2.047050000000238
100
AcDbArc
 50
180.0
 51
270.0
  0
ARC
  5
ECB
330
6B
100
AcDbEntity
  8
0
100
AcDbCircle
 10
673.5888647128595
 20
100.9458679548949
 30
0.0
 40
2.047050000000238
100
AcDbArc
 50
270.0
 51
0.0
  0
ARC
  5
ECC
330
6B
100
AcDbEntity
  8
0
100
AcDbCircle
 10
664.1359147128595
 20
107.3988179549011
 30
0.0
 40
13.00000000000628
100
AcDbArc
 50
247.3801350519754
 51
292.6198649480247
  0
LINE
  5
ECD
330
6B
100
AcDbEntity
  8
0
  6
Continuous
 62
     3
100
AcDbLine
 10
687.8859147128592
 20
160.3988179548948
 30
0.0
 11
640.3859147128596
 21
160.3988179548948
 31
0.0
  0
LINE
  5
ECE
330
6B
100
AcDbEntity
  8
0
  6
Continuous
100
AcDbLine
 10
689.1359147128595
 20
133.3988179548948
 30
0.0
 11
639.1359147128597
 21
133.3988179548948
 31
0.0
  0
LINE
  5
ECF
330
6B
100
AcDbEntity
  8
0
  6
Continuous
 62
     3
100
AcDbLine
 10
639.1359147128597
 20
155.3988179548948
 30
0.0
 11
689.1359147128595
 21
155.3988179548948
 31
0.0
  0
LINE
  5
ED0
330
6B
100
AcDbEntity
  8
0
  6
Continuous
 62
     3
100
AcDbLine
 10
639.1359147128597
 20
152.3988179548948
 30
0.0
 11
689.1359147128595
 21
152.3988179548948
 31
0.0
  0
LINE
  5
ED1
330
6B
100
AcDbEntity
  8
0
  6
CENTER
100
AcDbLine
 10
664.1359147128595
 20
91.31426853397975
 30
0.0
 11
664.1359147128595
 21
232.5036509897403
 31
0.0
  0
LINE
  5
ED8
330
6B
100
AcDbEntity
  8
0
  6
Continuous
 62
     3
100
AcDbLine
 10
650.1359147128596
 20
119.3988179548949
 30
0.0
 11
650.1359147128596
 21
122.398817954895
 31
0.0
  0
LINE
  5
ED9
330
6B
100
AcDbEntity
  8
0
  6
Continuous
 62
     3
100
AcDbLine
 10
678.1359147128596
 20
119.3988179548949
 30
0.0
 11
678.1359147128596
 21
122.398817954895
 31
0.0
  0
LINE
  5
EDA
330
6B
100
AcDbEntity
  8
0
  6
Continuous
 62
     3
100
AcDbLine
 10
639.1359147128597
 20
155.3988179548948
 30
0.0
 11
639.1359147128597
 21
134.3988179548949
 31
0.0
  0
LINE
  5
EDB
330
6B
100
AcDbEntity
  8
0
  6
Continuous
 62
     3
100
AcDbLine
 10
689.1359147128595
 20
155.3988179548948
 30
0.0
 11
689.1359147128595
 21
134.3988179548949
 31
0.0
  0
LINE
  5
EDC
330
6B
100
AcDbEntity
  8
0
  6
Continuous
 62
     3
100
AcDbLine
 10
640.3859147128596
 20
160.3988179548948
 30
0.0
 11
640.3859147128597
 21
155.3988179548948
 31
0.0
  0
LINE
  5
EDD
330
6B
100
AcDbEntity
  8
0
  6
Continuous
 62
     3
100
AcDbLine
 10
687.8859147128592
 20
160.3988179548948
 30
0.0
 11
687.8859147128592
 21
155.3988179548948
 31
0.0
  0
LINE
  5
EDE
330
6B
100
AcDbEntity
  8
0
  6
Continuous
 62
     3
100
AcDbLine
 10
689.1359147128595
 20
133.3988179548948
 30
0.0
 11
679.1359147128596
 21
122.398817954895
 31
0.0
  0
LINE
  5
EDF
330
6B
100
AcDbEntity
  8
0
  6
Continuous
 62
     3
100
AcDbLine
 10
679.1359147128596
 20
122.398817954895
 30
0.0
 11
649.1359147128596
 21
122.398817954895
 31
0.0
  0
LINE
  5
EE0
330
6B
100
AcDbEntity
  8
0
  6
Continuous
 62
     3
100
AcDbLine
 10
678.1359147128596
 20
119.3988179548949
 30
0.0
 11
650.1359147128596
 21
119.3988179548949
 31
0.0
  0
LINE
  5
EE1
330
6B
100
AcDbEntity
  8
0
  6
Continuous
 62
     3
100
AcDbLine
 10
649.1359147128596
 20
122.398817954895
 30
0.0
 11
639.1359147128597
 21
133.3988179548948
 31
0.0
  0
LINE
  5
EE2
330
6B
100
AcDbEntity
  8
0
  6
Continuous
100
AcDbLine
 10
675.6359147128596
 20
100.9458679548949
 30
0.0
 11
675.6359147128596
 21
101.4458679548949
 31
0.0
  0
LINE
  5
EE3
330
6B
100
AcDbEntity
  8
0
  6
Continuous
100
AcDbLine
 10
652.6359147128587
 20
100.9458679548949
 30
0.0
 11
652.6359147128587
 21
101.4458679548949
 31
0.0
  0
ARC
  5
124C
330
6B
100
AcDbEntity
  8
0
  6
Continuous
 62
     3
100
AcDbCircle
 10
688.6359147128596
 20
219.2301070212081
 30
0.0
 40
5.0
100
AcDbArc
 50
283.2079284627791
 51
103.2079284627791
  0
ARC
  5
124D
330
6B
100
AcDbEntity
  8
0
  6
Continuous
 62
     3
100
AcDbCircle
 10
639.6359147128596
 20
219.2301070212081
 30
0.0
 40
5.0
100
AcDbArc
 50
103.2079284627791
 51
283.2079284627791
  0
ARC
  5
124E
330
6B
100
AcDbEntity
  8
0
  6
Continuous
 62
     3
100
AcDbCircle
 10
688.6359147128596
 20
207.7301070212081
 30
0.0
 40
5.0
100
AcDbArc
 50
283.2079284627791
 51
103.2079284627791
  0
ARC
  5
124F
330
6B
100
AcDbEntity
  8
0
  6
Continuous
 62
     3
100
AcDbCircle
 10
639.6359147128596
 20
207.7301070212081
 30
0.0
 40
5.0
100
AcDbArc
 50
103.2079284627791
 51
283.2079284627791
  0
ARC
  5
1250
330
6B
100
AcDbEntity
  8
0
  6
Continuous
 62
     3
100
AcDbCircle
 10
688.6359147128596
 20
196.2301070212081
 30
0.0
 40
5.0
100
AcDbArc
 50
283.2079284627791
 51
103.2079284627791
  0
ARC
  5
1251
330
6B
100
AcDbEntity
  8
0
  6
Continuous
 62
     3
100
AcDbCircle
 10
639.6359147128596
 20
196.2301070212081
 30
0.0
 40
5.0
100
AcDbArc
 50
103.2079284627791
 51
283.2079284627791
  0
ARC
  5
1252
330
6B
100
AcDbEntity
  8
0
  6
Continuous
 62
     3
100
AcDbCircle
 10
688.6359147128596
 20
184.7301070212081
 30
0.0
 40
5.0
100
AcDbArc
 50
283.2079284627791
 51
103.2079284627791
  0
ARC
  5
1253
330
6B
100
AcDbEntity
  8
0
  6
Continuous
 62
     3
100
AcDbCircle
 10
639.6359147128596
 20
184.7301070212081
 30
0.0
 40
5.0
100
AcDbArc
 50
103.2079284627791
 51
283.2079284627791
  0
ARC
  5
1254
330
6B
100
AcDbEntity
  8
0
  6
Continuous
 62
     3
100
AcDbCircle
 10
688.6359147128596
 20
173.2301070212081
 30
0.0
 40
5.0
100
AcDbArc
 50
283.2079284627791
 51
103.2079284627791
  0
ARC
  5
1255
330
6B
100
AcDbEntity
  8
0
  6
Continuous
 62
     3
100
AcDbCircle
 10
639.6359147128596
 20
173.2301070212081
 30
0.0
 40
5.0
100
AcDbArc
 50
103.2079284627791
 51
283.2079284627791
  0
LINE
  5
1269
330
6B
100
AcDbEntity
  8
0
  6
Continuous
 62
     3
100
AcDbLine
 10
640.7783426609161
 20
214.3623705468805
 30
0.0
 11
659.566202920634
 21
218.7717663221204
 31
0.0
  0
LINE
  5
126A
330
6B
100
AcDbEntity
  8
0
  6
Continuous
 62
     3
100
AcDbLine
 10
638.4934867648031
 20
224.0978434955357
 30
0.0
 11
641.2873557517301
 21
224.7535474414472
 31
0.0
  0
LINE
  5
126B
330
6B
100
AcDbEntity
  8
0
  6
Continuous
 62
     3
100
AcDbLine
 10
640.7783426609161
 20
202.8623705468805
 30
0.0
 11
689.7783426609159
 21
214.3623705468805
 31
0.0
  0
LINE
  5
126D
330
6B
100
AcDbEntity
  8
0
  6
Continuous
 62
     3
100
AcDbLine
 10
638.4934867648031
 20
201.0978434955357
 30
0.0
 11
687.4934867648031
 21
212.5978434955357
 31
0.0
  0
LINE
  5
126E
330
6B
100
AcDbEntity
  8
0
  6
Continuous
 62
     3
100
AcDbLine
 10
640.7783426609161
 20
191.3623705468805
 30
0.0
 11
689.7783426609159
 21
202.8623705468805
 31
0.0
  0
LINE
  5
126F
330
6B
100
AcDbEntity
  8
0
  6
Continuous
 62
     3
100
AcDbLine
 10
638.4934867648031
 20
189.5978434955357
 30
0.0
 11
687.4934867648031
 21
201.0978434955357
 31
0.0
  0
LINE
  5
1270
330
6B
100
AcDbEntity
  8
0
  6
Continuous
 62
     3
100
AcDbLine
 10
640.7783426609161
 20
179.8623705468805
 30
0.0
 11
689.7783426609159
 21
191.3623705468805
 31
0.0
  0
LINE
  5
1271
330
6B
100
AcDbEntity
  8
0
  6
Continuous
 62
     3
100
AcDbLine
 10
638.4934867648031
 20
178.0978434955357
 30
0.0
 11
687.4934867648031
 21
189.5978434955357
 31
0.0
  0
LINE
  5
1272
330
6B
100
AcDbEntity
  8
0
  6
Continuous
 62
     3
100
AcDbLine
 10
640.7783426609161
 20
168.3623705468805
 30
0.0
 11
689.7783426609159
 21
179.8623705468805
 31
0.0
  0
LINE
  5
1273
330
6B
100
AcDbEntity
  8
0
  6
Continuous
 62
     3
100
AcDbLine
 10
683.6656020479125
 20
177.1994623885104
 30
0.0
 11
687.4934867648031
 21
178.0978434955357
 31
0.0
  0
LINE
  5
1274
330
6B
100
AcDbEntity
  8
0
  6
Continuous
 62
     3
100
AcDbLine
 10
685.9504579440257
 20
167.4639894398552
 30
0.0
 11
689.7783426609159
 21
168.3623705468805
 31
0.0
  0
LINE
  5
1277
330
6B
100
AcDbEntity
  8
0
  6
Continuous
 62
     3
100
AcDbLine
 10
686.9844736739905
 20
224.7535474414469
 30
0.0
 11
689.7783426609159
 21
224.0978434955357
 31
0.0
  0
LINE
  5
1279
330
6B
100
AcDbEntity
  8
0
  6
Continuous
 62
     3
100
AcDbLine
 10
661.8007086625149
 20
219.1640229033236
 30
0.0
 11
664.1359147128596
 21
218.6159643404878
 31
0.0
  0
LINE
  5
127A
330
6B
100
AcDbEntity
  8
0
  6
Continuous
 62
     3
100
AcDbLine
 10
638.4934867648031
 20
214.3623705468805
 30
0.0
 11
642.252696569842
 21
213.4801070212081
 31
0.0
  0
LINE
  5
127B
330
6B
100
AcDbEntity
  8
0
  6
Continuous
 62
     3
100
AcDbLine
 10
661.5191328558772
 20
207.7301070212081
 30
0.0
 11
664.1359147128595
 21
207.1159643404878
 31
0.0
  0
LINE
  5
127C
330
6B
100
AcDbEntity
  8
0
  6
Continuous
 62
     3
100
AcDbLine
 10
638.4934867648031
 20
202.8623705468805
 30
0.0
 11
642.252696569842
 21
201.9801070212081
 31
0.0
  0
LINE
  5
127D
330
6B
100
AcDbEntity
  8
0
  6
Continuous
 62
     3
100
AcDbLine
 10
661.5191328558772
 20
196.2301070212081
 30
0.0
 11
664.1359147128597
 21
195.6159643404878
 31
0.0
  0
LINE
  5
127E
330
6B
100
AcDbEntity
  8
0
  6
Continuous
 62
     3
100
AcDbLine
 10
638.4934867648031
 20
191.3623705468805
 30
0.0
 11
642.252696569842
 21
190.480107021208
 31
0.0
  0
LINE
  5
127F
330
6B
100
AcDbEntity
  8
0
  6
Continuous
 62
     3
100
AcDbLine
 10
661.5191328558772
 20
184.7301070212081
 30
0.0
 11
664.1359147128597
 21
184.1159643404878
 31
0.0
  0
LINE
  5
1280
330
6B
100
AcDbEntity
  8
0
  6
Continuous
 62
     3
100
AcDbLine
 10
638.4934867648031
 20
179.8623705468805
 30
0.0
 11
642.252696569842
 21
178.9801070212081
 31
0.0
  0
LINE
  5
1282
330
6B
100
AcDbEntity
  8
0
  6
Continuous
 62
     3
100
AcDbLine
 10
638.4934867648031
 20
168.3623705468805
 30
0.0
 11
642.3213714816935
 21
167.4639894398552
 31
0.0
  0
LINE
  5
1286
330
6B
100
AcDbEntity
  8
0
  6
Continuous
 62
     3
100
AcDbLine
 10
638.4934867648031
 20
212.5978434955357
 30
0.0
 11
687.4934867648031
 21
224.0978434955357
 31
0.0
  0
LINE
  5
1287
330
6B
100
AcDbEntity
  8
0
  6
Continuous
 62
     3
100
AcDbLine
 10
686.0191328558772
 20
213.4801070212081
 30
0.0
 11
689.7783426609159
 21
212.5978434955357
 31
0.0
  0
LINE
  5
1288
330
6B
100
AcDbEntity
  8
0
  6
Continuous
 62
     3
100
AcDbLine
 10
664.1359147128596
 20
208.3442497019285
 30
0.0
 11
666.7526965698421
 21
207.7301070212081
 31
0.0
  0
LINE
  5
128D
330
6B
100
AcDbEntity
  8
0
  6
Continuous
 62
     3
100
AcDbLine
 10
686.019132855877
 20
201.9801070212081
 30
0.0
 11
689.7783426609159
 21
201.0978434955357
 31
0.0
  0
LINE
  5
128E
330
6B
100
AcDbEntity
  8
0
  6
Continuous
 62
     3
100
AcDbLine
 10
664.1359147128596
 20
196.8442497019285
 30
0.0
 11
666.752696569842
 21
196.2301070212081
 31
0.0
  0
LINE
  5
128F
330
6B
100
AcDbEntity
  8
0
  6
Continuous
 62
     3
100
AcDbLine
 10
686.0191328558772
 20
190.480107021208
 30
0.0
 11
689.7783426609159
 21
189.5978434955357
 31
0.0
  0
LINE
  5
1290
330
6B
100
AcDbEntity
  8
0
  6
Continuous
 62
     3
100
AcDbLine
 10
664.1359147128596
 20
185.3442497019285
 30
0.0
 11
666.7526965698422
 21
184.7301070212082
 31
0.0
  0
LINE
  5
1291
330
6B
100
AcDbEntity
  8
0
  6
Continuous
 62
     3
100
AcDbLine
 10
686.0191328558774
 20
178.9801070212081
 30
0.0
 11
689.7783426609159
 21
178.0978434955357
 31
0.0
  0
LINE
  5
1292
330
6B
100
AcDbEntity
  8
0
  6
Continuous
 62
     3
100
AcDbLine
 10
664.1359147128596
 20
173.8442497019285
 30
0.0
 11
675.4613071335866
 21
171.1862494399212
 31
0.0
  0
LINE
  5
1293
330
6B
100
AcDbEntity
  8
0
 62
     3
100
AcDbLine
 10
683.6359147128596
 20
160.3988179548948
 30
0.0
 11
683.6359147128596
 21
164.5433475552586
 31
0.0
  0
LINE
  5
1294
330
6B
100
AcDbEntity
  8
0
 62
     3
100
AcDbLine
 10
644.6359147128596
 20
160.3988179548948
 30
0.0
 11
644.6359147128596
 21
164.5433475552586
 31
0.0
  0
LINE
  5
1295
330
6B
100
AcDbEntity
  8
0
 62
     3
100
AcDbLine
 10
673.6359147128596
 20
160.3988179548948
 30
0.0
 11
673.6359147128596
 21
164.5433475552586
 31
0.0
  0
LINE
  5
1296
330
6B
100
AcDbEntity
  8
0
 62
     3
100
AcDbLine
 10
654.6359147128596
 20
160.3988179548948
 30
0.0
 11
654.6359147128596
 21
164.5433475552586
 31
0.0
  0
ARC
  5
12CB
330
6B
100
AcDbEntity
  8
0
  6
Continuous
 62
     3
100
AcDbCircle
 10
686.6359147128596
 20
164.5433475552586
 30
0.0
 40
3.0
100
AcDbArc
 50
103.2079284627794
 51
180.0
  0
ARC
  5
12CC
330
6B
100
AcDbEntity
  8
0
  6
Continuous
 62
     3
100
AcDbCircle
 10
686.6359147128596
 20
164.5433475552586
 30
0.0
 40
13.0
100
AcDbArc
 50
103.2079284627794
 51
180.0
  0
ARC
  5
12CD
330
6B
100
AcDbEntity
  8
0
  6
Continuous
 62
     3
100
AcDbCircle
 10
641.6359147128596
 20
164.5433475552586
 30
0.0
 40
3.0
100
AcDbArc
 50
0.0
 51
76.79207153722059
  0
ARC
  5
12CE
330
6B
100
AcDbEntity
  8
0
  6
Continuous
 62
     3
100
AcDbCircle
 10
641.6359147128596
 20
164.5433475552586
 30
0.0
 40
13.0
100
AcDbArc
 50
0.0
 51
30.72995915123803
  0
ARC
  5
12D0
330
6B
100
AcDbEntity
  8
0
  6
Continuous
 62
     3
100
AcDbCircle
 10
664.1359147128597
 20
199.30082042481
 30
0.0
 40
20.0
100
AcDbArc
 50
83.29483296488188
 51
103.2079284627791
  0
ARC
  5
12D4
330
6B
100
AcDbEntity
  8
0
  6
Continuous
 62
     3
100
AcDbCircle
 10
664.1359147128597
 20
127.3988179548948
 30
0.0
 40
100.0
100
AcDbArc
 50
76.79207153722025
 51
103.2079284627791
  0
TEXT
  5
12EB
330
6B
100
AcDbEntity
  8
0
  6
Continuous
100
AcDbText
 10
710.5158233308982
 20
271.1415039548949
 30
0.0
 40
2.5
  1
14.05.27
  7
高2.5
100
AcDbText
  0
TEXT
  5
12EC
330
6B
100
AcDbEntity
  8
0
  6
Continuous
100
AcDbText
 10
728.1211493308984
 20
271.1415039548949
 30
0.0
 40
2.5
  1
形状および仕様変更
  7
高2.5
100
AcDbText
  0
TEXT
  5
12ED
330
6B
100
AcDbEntity
  8
0
  6
Continuous
100
AcDbText
 10
772.4128653308986
 20
271.1415039548949
 30
0.0
 40
2.5
  1
今村
  7
高2.5
100
AcDbText
  0
LINE
  5
146A
330
6B
100
AcDbEntity
  8
0
  6
Continuous
100
AcDbLine
 10
639.1359147128597
 20
134.1488179548949
 30
0.0
 11
639.1359147128597
 21
73.12328551476717
 31
0.0
  0
LINE
  5
146B
330
6B
100
AcDbEntity
  8
0
  6
Continuous
100
AcDbLine
 10
689.1359147128595
 20
134.1488179548949
 30
0.0
 11
689.1359147128595
 21
73.12328551476717
 31
0.0
  0
LINE
  5
146C
330
6B
100
AcDbEntity
  8
0
  6
Continuous
100
AcDbLine
 10
641.6359147128597
 20
74.37328551476717
 30
0.0
 11
686.6359147128595
 21
74.37328551476717
 31
0.0
  0
LINE
  5
1470
330
6B
100
AcDbEntity
  8
0
  6
Continuous
100
AcDbLine
 10
651.1419332128593
 20
104.5292009548953
 30
0.0
 11
651.1419332128593
 21
80.29601043635636
 31
0.0
  0
LINE
  5
1471
330
6B
100
AcDbEntity
  8
0
  6
Continuous
100
AcDbLine
 10
677.1343012128592
 20
102.5292009548951
 30
0.0
 11
677.1343012128592
 21
80.29601043635636
 31
0.0
  0
LINE
  5
1472
330
6B
100
AcDbEntity
  8
0
  6
Continuous
100
AcDbLine
 10
653.6419332128592
 20
81.54601043635636
 30
0.0
 11
674.6343012128591
 21
81.54601043635636
 31
0.0
  0
LINE
  5
1476
330
6B
100
AcDbEntity
  8
0
  6
Continuous
100
AcDbLine
 10
634.6359147128595
 20
219.4801070212081
 30
0.0
 11
634.6359147128595
 21
240.2520310284827
 31
0.0
  0
LINE
  5
1477
330
6B
100
AcDbEntity
  8
0
  6
Continuous
100
AcDbLine
 10
693.6359147128595
 20
219.4801070212081
 30
0.0
 11
693.6359147128595
 21
240.2520310284827
 31
0.0
  0
LINE
  5
1478
330
6B
100
AcDbEntity
  8
0
  6
Continuous
100
AcDbLine
 10
637.1359147128595
 20
239.0020310284827
 30
0.0
 11
691.1359147128595
 21
239.0020310284827
 31
0.0
  0
LINE
  5
147C
330
6B
100
AcDbEntity
  8
0
  6
Continuous
100
AcDbLine
 10
640.1359147128596
 20
160.3988179548948
 30
0.0
 11
622.2339612861157
 21
160.3988179548948
 31
0.0
  0
LINE
  5
147D
330
6B
100
AcDbEntity
  8
0
  6
Continuous
100
AcDbLine
 10
663.8859147128595
 20
94.39881795489487
 30
0.0
 11
622.2339612861157
 21
94.39881795489487
 31
0.0
  0
LINE
  5
147E
330
6B
100
AcDbEntity
  8
0
  6
Continuous
100
AcDbLine
 10
623.4839612861157
 20
157.8988179548948
 30
0.0
 11
623.4839612861157
 21
96.89881795489487
 31
0.0
  0
LINE
  5
1482
330
6B
100
AcDbEntity
  8
0
  6
Continuous
100
AcDbLine
 10
663.8859147128595
 20
94.39881795489487
 30
0.0
 11
610.7990723308192
 21
94.39881795489487
 31
0.0
  0
LINE
  5
1483
330
6B
100
AcDbEntity
  8
0
  6
Continuous
100
AcDbLine
 10
663.8859147128597
 20
227.3988179548948
 30
0.0
 11
610.7990723308192
 21
227.3988179548948
 31
0.0
  0
LINE
  5
1484
330
6B
100
AcDbEntity
  8
0
  6
Continuous
100
AcDbLine
 10
612.0490723308193
 20
96.89881795489487
 30
0.0
 11
612.0490723308193
 21
224.8988179548948
 31
0.0
  0
LINE
  5
1488
330
6B
100
AcDbEntity
  8
0
 62
     2
100
AcDbLine
 10
678.3333573308985
 20
290.4547759548949
 30
0.0
 11
678.3147303308983
 21
290.574043954895
 31
0.0
  0
LINE
  5
1489
330
6B
100
AcDbEntity
  8
0
 62
     2
100
AcDbLine
 10
678.3147303308983
 20
290.574043954895
 30
0.0
 11
678.2923593308983
 21
290.688247954895
 31
0.0
  0
LINE
  5
148A
330
6B
100
AcDbEntity
  8
0
 62
     2
100
AcDbLine
 10
678.2923593308983
 20
290.688247954895
 30
0.0
 11
678.2664173308983
 21
290.7965079548949
 31
0.0
  0
LINE
  5
148B
330
6B
100
AcDbEntity
  8
0
 62
     2
100
AcDbLine
 10
678.2664173308983
 20
290.7965079548949
 30
0.0
 11
678.2371053308983
 21
290.897983954895
 31
0.0
  0
LINE
  5
148C
330
6B
100
AcDbEntity
  8
0
 62
     2
100
AcDbLine
 10
678.2371053308983
 20
290.897983954895
 30
0.0
 11
678.2046493308985
 21
290.991893954895
 31
0.0
  0
LINE
  5
148D
330
6B
100
AcDbEntity
  8
0
 62
     2
100
AcDbLine
 10
678.2046493308985
 20
290.991893954895
 30
0.0
 11
678.1693003308979
 21
291.077510954895
 31
0.0
  0
LINE
  5
148E
330
6B
100
AcDbEntity
  8
0
 62
     2
100
AcDbLine
 10
678.1693003308979
 20
291.077510954895
 30
0.0
 11
678.1313323308983
 21
291.1541729548949
 31
0.0
  0
LINE
  5
148F
330
6B
100
AcDbEntity
  8
0
 62
     2
100
AcDbLine
 10
678.1313323308983
 20
291.1541729548949
 30
0.0
 11
678.0910383308983
 21
291.221287954895
 31
0.0
  0
LINE
  5
1490
330
6B
100
AcDbEntity
  8
0
 62
     2
100
AcDbLine
 10
678.0910383308983
 20
291.221287954895
 30
0.0
 11
678.0487293308982
 21
291.278337954895
 31
0.0
  0
LINE
  5
1491
330
6B
100
AcDbEntity
  8
0
 62
     2
100
AcDbLine
 10
678.0487293308982
 20
291.278337954895
 30
0.0
 11
678.0047323308982
 21
291.3248809548949
 31
0.0
  0
LINE
  5
1492
330
6B
100
AcDbEntity
  8
0
 62
     2
100
AcDbLine
 10
678.0047323308982
 20
291.3248809548949
 30
0.0
 11
677.9593883308985
 21
291.3605569548949
 31
0.0
  0
LINE
  5
1493
330
6B
100
AcDbEntity
  8
0
 62
     2
100
AcDbLine
 10
677.9593883308985
 20
291.3605569548949
 30
0.0
 11
677.9130473308984
 21
291.385089954895
 31
0.0
  0
LINE
  5
1494
330
6B
100
AcDbEntity
  8
0
 62
     2
100
AcDbLine
 10
677.9130473308984
 20
291.385089954895
 30
0.0
 11
677.8660673308983
 21
291.398291954895
 31
0.0
  0
LINE
  5
1495
330
6B
100
AcDbEntity
  8
0
 62
     2
100
AcDbLine
 10
677.8660673308983
 20
291.398291954895
 30
0.0
 11
677.8188123308985
 21
291.400059954895
 31
0.0
  0
LINE
  5
1496
330
6B
100
AcDbEntity
  8
0
 62
     2
100
AcDbLine
 10
677.8188123308985
 20
291.400059954895
 30
0.0
 11
677.7716463308983
 21
291.390379954895
 31
0.0
  0
LINE
  5
1497
330
6B
100
AcDbEntity
  8
0
 62
     2
100
AcDbLine
 10
677.7716463308983
 20
291.390379954895
 30
0.0
 11
677.7249343308982
 21
291.3693279548949
 31
0.0
  0
LINE
  5
1498
330
6B
100
AcDbEntity
  8
0
 62
     2
100
AcDbLine
 10
677.7249343308982
 20
291.3693279548949
 30
0.0
 11
677.6790373308982
 21
291.337064954895
 31
0.0
  0
LINE
  5
1499
330
6B
100
AcDbEntity
  8
0
 62
     2
100
AcDbLine
 10
677.6790373308982
 20
291.337064954895
 30
0.0
 11
677.6343103308981
 21
291.2938409548949
 31
0.0
  0
LINE
  5
149A
330
6B
100
AcDbEntity
  8
0
 62
     2
100
AcDbLine
 10
677.6343103308981
 20
291.2938409548949
 30
0.0
 11
677.5910993308984
 21
291.239990954895
 31
0.0
  0
LINE
  5
149B
330
6B
100
AcDbEntity
  8
0
 62
     2
100
AcDbLine
 10
677.5910993308984
 20
291.239990954895
 30
0.0
 11
677.5497373308983
 21
291.175930954895
 31
0.0
  0
LINE
  5
149C
330
6B
100
AcDbEntity
  8
0
 62
     2
100
AcDbLine
 10
677.5497373308983
 20
291.175930954895
 30
0.0
 11
677.5105453308982
 21
291.102154954895
 31
0.0
  0
LINE
  5
149D
330
6B
100
AcDbEntity
  8
0
 62
     2
100
AcDbLine
 10
677.5105453308982
 20
291.102154954895
 30
0.0
 11
677.4738253308982
 21
291.019233954895
 31
0.0
  0
LINE
  5
149E
330
6B
100
AcDbEntity
  8
0
 62
     2
100
AcDbLine
 10
677.4738253308982
 20
291.019233954895
 30
0.0
 11
677.4398613308983
 21
290.927808954895
 31
0.0
  0
LINE
  5
149F
330
6B
100
AcDbEntity
  8
0
 62
     2
100
AcDbLine
 10
677.4398613308983
 20
290.927808954895
 30
0.0
 11
677.4089153308985
 21
290.8285869548949
 31
0.0
  0
LINE
  5
14A0
330
6B
100
AcDbEntity
  8
0
 62
     2
100
AcDbLine
 10
677.4089153308985
 20
290.8285869548949
 30
0.0
 11
677.3812283308982
 21
290.7223339548949
 31
0.0
  0
LINE
  5
14A1
330
6B
100
AcDbEntity
  8
0
 62
     2
100
AcDbLine
 10
677.3812283308982
 20
290.7223339548949
 30
0.0
 11
677.3570123308983
 21
290.609871954895
 31
0.0
  0
LINE
  5
14A2
330
6B
100
AcDbEntity
  8
0
 62
     2
100
AcDbLine
 10
677.3570123308983
 20
290.609871954895
 30
0.0
 11
677.3364563308984
 21
290.492069954895
 31
0.0
  0
LINE
  5
14A3
330
6B
100
AcDbEntity
  8
0
 62
     2
100
AcDbLine
 10
677.3364563308984
 20
290.492069954895
 30
0.0
 11
677.3197173308982
 21
290.3698389548949
 31
0.0
  0
LINE
  5
14A4
330
6B
100
AcDbEntity
  8
0
 62
     2
100
AcDbLine
 10
677.3197173308982
 20
290.3698389548949
 30
0.0
 11
677.3069253308982
 21
290.2441229548949
 31
0.0
  0
LINE
  5
14A5
330
6B
100
AcDbEntity
  8
0
 62
     2
100
AcDbLine
 10
677.3069253308982
 20
290.2441229548949
 30
0.0
 11
677.2981803308984
 21
290.1158939548951
 31
0.0
  0
LINE
  5
14A6
330
6B
100
AcDbEntity
  8
0
 62
     2
100
AcDbLine
 10
677.2981803308984
 20
290.1158939548951
 30
0.0
 11
677.2935483308984
 21
289.986143954895
 31
0.0
  0
LINE
  5
14A7
330
6B
100
AcDbEntity
  8
0
 62
     2
100
AcDbLine
 10
677.2935483308984
 20
289.986143954895
 30
0.0
 11
677.2930663308983
 21
289.855874954895
 31
0.0
  0
LINE
  5
14A8
330
6B
100
AcDbEntity
  8
0
 62
     2
100
AcDbLine
 10
677.2930663308983
 20
289.855874954895
 30
0.0
 11
677.2967383308983
 21
289.7260939548949
 31
0.0
  0
LINE
  5
14A9
330
6B
100
AcDbEntity
  8
0
 62
     2
100
AcDbLine
 10
677.2967383308983
 20
289.7260939548949
 30
0.0
 11
677.3045343308982
 21
289.597803954895
 31
0.0
  0
LINE
  5
14AA
330
6B
100
AcDbEntity
  8
0
 62
     2
100
AcDbLine
 10
677.3045343308982
 20
289.597803954895
 30
0.0
 11
677.3163953308983
 21
289.471996954895
 31
0.0
  0
LINE
  5
14AB
330
6B
100
AcDbEntity
  8
0
 62
     2
100
AcDbLine
 10
677.3163953308983
 20
289.471996954895
 30
0.0
 11
677.3322283308985
 21
289.349644954895
 31
0.0
  0
LINE
  5
14AC
330
6B
100
AcDbEntity
  8
0
 62
     2
100
AcDbLine
 10
677.3322283308985
 20
289.349644954895
 30
0.0
 11
677.3519133308982
 21
289.231693954895
 31
0.0
  0
LINE
  5
14AD
330
6B
100
AcDbEntity
  8
0
 62
     2
100
AcDbLine
 10
677.3519133308982
 20
289.231693954895
 30
0.0
 11
677.3752953308983
 21
289.119055954895
 31
0.0
  0
LINE
  5
14AE
330
6B
100
AcDbEntity
  8
0
 62
     2
100
AcDbLine
 10
677.3752953308983
 20
289.119055954895
 30
0.0
 11
677.4021963308983
 21
289.012600954895
 31
0.0
  0
LINE
  5
14AF
330
6B
100
AcDbEntity
  8
0
 62
     2
100
AcDbLine
 10
677.4021963308983
 20
289.012600954895
 30
0.0
 11
677.4324063308982
 21
288.913152954895
 31
0.0
  0
LINE
  5
14B0
330
6B
100
AcDbEntity
  8
0
 62
     2
100
AcDbLine
 10
677.4324063308982
 20
288.913152954895
 30
0.0
 11
677.4656933308982
 21
288.8214789548949
 31
0.0
  0
LINE
  5
14B1
330
6B
100
AcDbEntity
  8
0
 62
     2
100
AcDbLine
 10
677.4656933308982
 20
288.8214789548949
 30
0.0
 11
677.5017983308984
 21
288.738288954895
 31
0.0
  0
LINE
  5
14B2
330
6B
100
AcDbEntity
  8
0
 62
     2
100
AcDbLine
 10
677.5017983308984
 20
288.738288954895
 30
0.0
 11
677.5404433308982
 21
288.664224954895
 31
0.0
  0
LINE
  5
14B3
330
6B
100
AcDbEntity
  8
0
 62
     2
100
AcDbLine
 10
677.5404433308982
 20
288.664224954895
 30
0.0
 11
677.5813303308985
 21
288.5998599548948
 31
0.0
  0
LINE
  5
14B4
330
6B
100
AcDbEntity
  8
0
 62
     2
100
AcDbLine
 10
677.5813303308985
 20
288.5998599548948
 30
0.0
 11
677.6241413308984
 21
288.5456919548951
 31
0.0
  0
LINE
  5
14B5
330
6B
100
AcDbEntity
  8
0
 62
     2
100
AcDbLine
 10
677.6241413308984
 20
288.5456919548951
 30
0.0
 11
677.6685473308982
 21
288.502137954895
 31
0.0
  0
LINE
  5
14B6
330
6B
100
AcDbEntity
  8
0
 62
     2
100
AcDbLine
 10
677.6685473308982
 20
288.502137954895
 30
0.0
 11
677.7142043308984
 21
288.469536954895
 31
0.0
  0
LINE
  5
14B7
330
6B
100
AcDbEntity
  8
0
 62
     2
100
AcDbLine
 10
677.7142043308984
 20
288.469536954895
 30
0.0
 11
677.7607593308982
 21
288.448138954895
 31
0.0
  0
LINE
  5
14B8
330
6B
100
AcDbEntity
  8
0
 62
     2
100
AcDbLine
 10
677.7607593308982
 20
288.448138954895
 30
0.0
 11
677.8078523308981
 21
288.438109954895
 31
0.0
  0
LINE
  5
14B9
330
6B
100
AcDbEntity
  8
0
 62
     2
100
AcDbLine
 10
677.8078523308981
 20
288.438109954895
 30
0.0
 11
677.8551203308983
 21
288.439528954895
 31
0.0
  0
LINE
  5
14BA
330
6B
100
AcDbEntity
  8
0
 62
     2
100
AcDbLine
 10
677.8551203308983
 20
288.439528954895
 30
0.0
 11
677.9021963308982
 21
288.452381954895
 31
0.0
  0
LINE
  5
14BB
330
6B
100
AcDbEntity
  8
0
 62
     2
100
AcDbLine
 10
677.9021963308982
 20
288.452381954895
 30
0.0
 11
677.9487173308985
 21
288.4765729548949
 31
0.0
  0
LINE
  5
14BC
330
6B
100
AcDbEntity
  8
0
 62
     2
100
AcDbLine
 10
677.9487173308985
 20
288.4765729548949
 30
0.0
 11
677.9943243308983
 21
288.511911954895
 31
0.0
  0
LINE
  5
14BD
330
6B
100
AcDbEntity
  8
0
 62
     2
100
AcDbLine
 10
677.9943243308983
 20
288.511911954895
 30
0.0
 11
678.0386643308982
 21
288.558127954895
 31
0.0
  0
LINE
  5
14BE
330
6B
100
AcDbEntity
  8
0
 62
     2
100
AcDbLine
 10
678.0386643308982
 20
288.558127954895
 30
0.0
 11
678.0813943308983
 21
288.614862954895
 31
0.0
  0
LINE
  5
14BF
330
6B
100
AcDbEntity
  8
0
 62
     2
100
AcDbLine
 10
678.0813943308983
 20
288.614862954895
 30
0.0
 11
678.1221843308983
 21
288.6816779548949
 31
0.0
  0
LINE
  5
14C0
330
6B
100
AcDbEntity
  8
0
 62
     2
100
AcDbLine
 10
678.1221843308983
 20
288.6816779548949
 30
0.0
 11
678.1607183308982
 21
288.758056954895
 31
0.0
  0
LINE
  5
14C1
330
6B
100
AcDbEntity
  8
0
 62
     2
100
AcDbLine
 10
678.1607183308982
 20
288.758056954895
 30
0.0
 11
678.1966993308985
 21
288.843409954895
 31
0.0
  0
LINE
  5
14C2
330
6B
100
AcDbEntity
  8
0
 62
     2
100
AcDbLine
 10
678.1966993308985
 20
288.843409954895
 30
0.0
 11
678.2298493308983
 21
288.937076954895
 31
0.0
  0
LINE
  5
14C3
330
6B
100
AcDbEntity
  8
0
 62
     2
100
AcDbLine
 10
678.2298493308983
 20
288.937076954895
 30
0.0
 11
678.2599113308982
 21
289.0383339548951
 31
0.0
  0
LINE
  5
14C4
330
6B
100
AcDbEntity
  8
0
 62
     2
100
AcDbLine
 10
678.2599113308982
 20
289.0383339548951
 30
0.0
 11
678.2866543308982
 21
289.1463979548949
 31
0.0
  0
LINE
  5
14C5
330
6B
100
AcDbEntity
  8
0
 62
     2
100
AcDbLine
 10
678.2866543308982
 20
289.1463979548949
 30
0.0
 11
678.3098693308983
 21
289.2604339548949
 31
0.0
  0
LINE
  5
14C6
330
6B
100
AcDbEntity
  8
0
 62
     2
100
AcDbLine
 10
678.3098693308983
 20
289.2604339548949
 30
0.0
 11
678.3293793308984
 21
289.3795609548951
 31
0.0
  0
TEXT
  5
14C7
330
6B
100
AcDbEntity
  8
0
  6
Continuous
 62
     4
100
AcDbText
 10
660.3859147128595
 20
74.99828551476717
 30
0.0
 40
3.0
  1
\U+220550
100
AcDbText
  0
LINE
  5
14C8
330
6B
100
AcDbEntity
  8
0
  6
ByBlock
 62
     0
370
    -2
100
AcDbLine
 10
686.6359147128595
 20
75.04315801476717
 30
0.0
 11
689.1359147128595
 21
74.37328551476717
 31
0.0
  0
LINE
  5
14C9
330
6B
100
AcDbEntity
  8
0
  6
ByBlock
 62
     0
370
    -2
100
AcDbLine
 10
689.1359147128595
 20
74.37328551476717
 30
0.0
 11
686.6359147128595
 21
73.70341301476718
 31
0.0
  0
LINE
  5
14CA
330
6B
100
AcDbEntity
  8
0
  6
ByBlock
 62
     0
370
    -2
100
AcDbLine
 10
689.1359147128595
 20
74.37328551476717
 30
0.0
 11
686.6359147128595
 21
74.37328551476717
 31
0.0
  0
LINE
  5
14CB
330
6B
100
AcDbEntity
  8
0
  6
ByBlock
 62
     0
370
    -2
100
AcDbLine
 10
641.6359147128597
 20
73.70341301476718
 30
0.0
 11
639.1359147128597
 21
74.37328551476717
 31
0.0
  0
LINE
  5
14CC
330
6B
100
AcDbEntity
  8
0
  6
ByBlock
 62
     0
370
    -2
100
AcDbLine
 10
639.1359147128597
 20
74.37328551476717
 30
0.0
 11
641.6359147128597
 21
75.04315801476717
 31
0.0
  0
LINE
  5
14CD
330
6B
100
AcDbEntity
  8
0
  6
ByBlock
 62
     0
370
    -2
100
AcDbLine
 10
639.1359147128597
 20
74.37328551476717
 30
0.0
 11
641.6359147128597
 21
74.37328551476717
 31
0.0
  0
TEXT
  5
14CE
330
6B
100
AcDbEntity
  8
0
  6
Continuous
 62
     4
100
AcDbText
 10
660.1381172128593
 20
82.17101043635636
 30
0.0
 40
3.0
  1
E26
100
AcDbText
  0
LINE
  5
14CF
330
6B
100
AcDbEntity
  8
0
  6
ByBlock
 62
     0
370
    -2
100
AcDbLine
 10
674.6343012128591
 20
82.21588293635637
 30
0.0
 11
677.1343012128592
 21
81.54601043635636
 31
0.0
  0
LINE
  5
14D0
330
6B
100
AcDbEntity
  8
0
  6
ByBlock
 62
     0
370
    -2
100
AcDbLine
 10
677.1343012128592
 20
81.54601043635636
 30
0.0
 11
674.6343012128591
 21
80.87613793635638
 31
0.0
  0
LINE
  5
14D1
330
6B
100
AcDbEntity
  8
0
  6
ByBlock
 62
     0
370
    -2
100
AcDbLine
 10
677.1343012128592
 20
81.54601043635636
 30
0.0
 11
674.6343012128591
 21
81.54601043635636
 31
0.0
  0
LINE
  5
14D2
330
6B
100
AcDbEntity
  8
0
  6
ByBlock
 62
     0
370
    -2
100
AcDbLine
 10
653.6419332128592
 20
80.87613793635638
 30
0.0
 11
651.1419332128593
 21
81.54601043635636
 31
0.0
  0
LINE
  5
14D3
330
6B
100
AcDbEntity
  8
0
  6
ByBlock
 62
     0
370
    -2
100
AcDbLine
 10
651.1419332128593
 20
81.54601043635636
 30
0.0
 11
653.6419332128592
 21
82.21588293635637
 31
0.0
  0
LINE
  5
14D4
330
6B
100
AcDbEntity
  8
0
  6
ByBlock
 62
     0
370
    -2
100
AcDbLine
 10
651.1419332128593
 20
81.54601043635636
 30
0.0
 11
653.6419332128592
 21
81.54601043635636
 31
0.0
  0
TEXT
  5
14D5
330
6B
100
AcDbEntity
  8
0
  6
Continuous
 62
     4
100
AcDbText
 10
660.1359147128596
 20
239.6270310284827
 30
0.0
 40
3.0
  1
\U+220559
100
AcDbText
  0
LINE
  5
14D6
330
6B
100
AcDbEntity
  8
0
  6
ByBlock
 62
     0
370
    -2
100
AcDbLine
 10
691.1359147128595
 20
239.6719035284827
 30
0.0
 11
693.6359147128595
 21
239.0020310284827
 31
0.0
  0
LINE
  5
14D7
330
6B
100
AcDbEntity
  8
0
  6
ByBlock
 62
     0
370
    -2
100
AcDbLine
 10
693.6359147128595
 20
239.0020310284827
 30
0.0
 11
691.1359147128595
 21
238.3321585284827
 31
0.0
  0
LINE
  5
14D8
330
6B
100
AcDbEntity
  8
0
  6
ByBlock
 62
     0
370
    -2
100
AcDbLine
 10
693.6359147128595
 20
239.0020310284827
 30
0.0
 11
691.1359147128595
 21
239.0020310284827
 31
0.0
  0
LINE
  5
14D9
330
6B
100
AcDbEntity
  8
0
  6
ByBlock
 62
     0
370
    -2
100
AcDbLine
 10
637.1359147128595
 20
238.3321585284827
 30
0.0
 11
634.6359147128595
 21
239.0020310284827
 31
0.0
  0
LINE
  5
14DA
330
6B
100
AcDbEntity
  8
0
  6
ByBlock
 62
     0
370
    -2
100
AcDbLine
 10
634.6359147128595
 20
239.0020310284827
 30
0.0
 11
637.1359147128595
 21
239.6719035284827
 31
0.0
  0
LINE
  5
14DB
330
6B
100
AcDbEntity
  8
0
  6
ByBlock
 62
     0
370
    -2
100
AcDbLine
 10
634.6359147128595
 20
239.0020310284827
 30
0.0
 11
637.1359147128595
 21
239.0020310284827
 31
0.0
  0
TEXT
  5
14DC
330
6B
100
AcDbEntity
  8
0
  6
Continuous
 62
     4
100
AcDbText
 10
622.8589612861156
 20
121.9372252530633
 30
0.0
 40
3.0
  1
66
 50
90.0
100
AcDbText
  0
LINE
  5
14DD
330
6B
100
AcDbEntity
  8
0
  6
ByBlock
 62
     0
370
    -2
100
AcDbLine
 10
624.1538337861157
 20
96.89881795489487
 30
0.0
 11
623.4839612861157
 21
94.39881795489487
 31
0.0
  0
LINE
  5
14DE
330
6B
100
AcDbEntity
  8
0
  6
ByBlock
 62
     0
370
    -2
100
AcDbLine
 10
623.4839612861157
 20
94.39881795489487
 30
0.0
 11
622.8140887861156
 21
96.89881795489487
 31
0.0
  0
LINE
  5
14DF
330
6B
100
AcDbEntity
  8
0
  6
ByBlock
 62
     0
370
    -2
100
AcDbLine
 10
623.4839612861157
 20
94.39881795489487
 30
0.0
 11
623.4839612861157
 21
96.89881795489487
 31
0.0
  0
LINE
  5
14E0
330
6B
100
AcDbEntity
  8
0
  6
ByBlock
 62
     0
370
    -2
100
AcDbLine
 10
622.8140887861156
 20
157.8988179548948
 30
0.0
 11
623.4839612861157
 21
160.3988179548948
 31
0.0
  0
LINE
  5
14E1
330
6B
100
AcDbEntity
  8
0
  6
ByBlock
 62
     0
370
    -2
100
AcDbLine
 10
623.4839612861157
 20
160.3988179548948
 30
0.0
 11
624.1538337861157
 21
157.8988179548948
 31
0.0
  0
LINE
  5
14E2
330
6B
100
AcDbEntity
  8
0
  6
ByBlock
 62
     0
370
    -2
100
AcDbLine
 10
623.4839612861157
 20
160.3988179548948
 30
0.0
 11
623.4839612861157
 21
157.8988179548948
 31
0.0
  0
TEXT
  5
14E3
330
6B
100
AcDbEntity
  8
0
  6
Continuous
 62
     4
100
AcDbText
 10
611.4240723308192
 20
156.5152643966726
 30
0.0
 40
3.0
  1
133
 50
90.0
100
AcDbText
  0
LINE
  5
14E4
330
6B
100
AcDbEntity
  8
0
  6
ByBlock
 62
     0
370
    -2
100
AcDbLine
 10
611.3791998308193
 20
224.8988179548948
 30
0.0
 11
612.0490723308193
 21
227.3988179548948
 31
0.0
  0
LINE
  5
14E5
330
6B
100
AcDbEntity
  8
0
  6
ByBlock
 62
     0
370
    -2
100
AcDbLine
 10
612.0490723308193
 20
227.3988179548948
 30
0.0
 11
612.7189448308192
 21
224.8988179548948
 31
0.0
  0
LINE
  5
14E6
330
6B
100
AcDbEntity
  8
0
  6
ByBlock
 62
     0
370
    -2
100
AcDbLine
 10
612.0490723308193
 20
227.3988179548948
 30
0.0
 11
612.0490723308193
 21
224.8988179548948
 31
0.0
  0
LINE
  5
14E7
330
6B
100
AcDbEntity
  8
0
  6
ByBlock
 62
     0
370
    -2
100
AcDbLine
 10
612.7189448308192
 20
96.89881795489487
 30
0.0
 11
612.0490723308193
 21
94.39881795489487
 31
0.0
  0
LINE
  5
14E8
330
6B
100
AcDbEntity
  8
0
  6
ByBlock
 62
     0
370
    -2
100
AcDbLine
 10
612.0490723308193
 20
94.39881795489487
 30
0.0
 11
611.3791998308193
 21
96.89881795489487
 31
0.0
  0
LINE
  5
14E9
330
6B
100
AcDbEntity
  8
0
  6
ByBlock
 62
     0
370
    -2
100
AcDbLine
 10
612.0490723308193
 20
94.39881795489487
 30
0.0
 11
612.0490723308193
 21
96.89881795489487
 31
0.0
  0
ENDSEC
  0
SECTION
  2
OBJECTS
  0
DICTIONARY
  5
C
330
0
100
AcDbDictionary
281
     1
  3
ACAD_2007HEADERVARS_RT
350
14ED
  3
ACAD_COLOR
350
62
  3
ACAD_GROUP
350
D
  3
ACAD_LAYOUT
350
61
  3
ACAD_MATERIAL
350
10
  3
ACAD_MLEADERSTYLE
350
65
  3
ACAD_MLINESTYLE
350
5E
  3
ACAD_PLOTSETTINGS
350
60
  3
ACAD_PLOTSTYLENAME
350
E
  3
ACAD_SCALELIST
350
42
  3
ACAD_TABLESTYLE
350
63
  3
ACAD_VISUALSTYLE
350
29
  3
ACDB_RECOMPOSE_DATA
350
14EB
  3
AcDbVariableDictionary
350
548
  3
DWGPROPS
350
14EC
  0
DICTIONARY
  5
3EB
330
2
100
AcDbDictionary
280
     1
281
     1
  3
ACAD_LAYERSTATES
360
3EC
  0
DICTIONARY
  5
544
330
54
100
AcDbDictionary
280
     1
281
     1
  3
ADSK_XREC_LAYER_RECONCILED
360
545
  0
DICTIONARY
  5
658
330
6B
100
AcDbDictionary
280
     1
281
     1
  3
ACAD_SORTENTS
360
659
  0
DICTIONARY
  5
14ED
102
{ACAD_REACTORS
330
C
102
}
330
C
100
AcDbDictionary
281
     1
  3
DIMARCSYM
350
14EF
  3
DIMFXL
350
14EE
  3
DIMJOGANG
350
14F0
  0
DICTIONARY
  5
62
102
{ACAD_REACTORS
330
C
102
}
330
C
100
AcDbDictionary
281
     1
  0
DICTIONARY
  5
D
102
{ACAD_REACTORS
330
C
102
}
330
C
100
AcDbDictionary
281
     1
  0
DICTIONARY
  5
61
102
{ACAD_REACTORS
330
C
102
}
330
C
100
AcDbDictionary
281
     1
  3
Model
350
6E
  3
レイアウト1
350
6A
  0
DICTIONARY
  5
10
102
{ACAD_REACTORS
330
C
102
}
330
C
100
AcDbDictionary
281
     1
  3
ByBlock
350
19
  3
ByLayer
350
11
  3
Global
350
21
  0
DICTIONARY
  5
65
102
{ACAD_REACTORS
330
C
102
}
330
C
100
AcDbDictionary
281
     1
  3
Standard
350
66
  0
DICTIONARY
  5
5E
102
{ACAD_REACTORS
330
C
102
}
330
C
100
AcDbDictionary
281
     1
  3
Standard
350
5F
  0
DICTIONARY
  5
60
102
{ACAD_REACTORS
330
C
102
}
330
C
100
AcDbDictionary
281
     1
  0
ACDBDICTIONARYWDFLT
  5
E
102
{ACAD_REACTORS
330
C
102
}
330
C
100
AcDbDictionary
281
     1
  3
Normal
350
F
100
AcDbDictionaryWithDefault
340
F
  0
DICTIONARY
  5
42
102
{ACAD_REACTORS
330
C
102
}
330
C
100
AcDbDictionary
281
     1
  3
A0
350
43
  3
A1
350
44
  3
A2
350
45
  3
A3
350
46
  3
A4
350
47
  3
A5
350
48
  3
A6
350
49
  3
A7
350
4A
  3
A8
350
4B
  3
A9
350
4C
  3
B0
350
4D
  3
B1
350
4E
  3
B2
350
4F
  3
B3
350
50
  3
B4
350
51
  3
B5
350
52
  3
B6
350
53
  0
DICTIONARY
  5
63
102
{ACAD_REACTORS
330
C
102
}
330
C
100
AcDbDictionary
281
     1
  3
Standard
350
64
  0
DICTIONARY
  5
29
102
{ACAD_REACTORS
330
C
102
}
330
C
100
AcDbDictionary
281
     1
  3
2dWireframe
350
2F
  3
3dWireframe
350
3EA
  3
Basic
350
2E
  3
Brighten
350
35
  3
ColorChange
350
39
  3
Conceptual
350
32
  3
Dim
350
34
  3
EdgeColorOff
350
41
  3
Facepattern
350
38
  3
Flat
350
2A
  3
FlatWithEdges
350
2B
  3
Gouraud
350
2C
  3
GouraudWithEdges
350
2D
  3
Hidden
350
31
  3
JitterOff
350
3F
  3
Linepattern
350
37
  3
OverhangOff
350
40
  3
Realistic
350
33
  3
Shaded
350
3E
  3
Shaded with edges
350
3D
  3
Shades of Gray
350
3A
  3
Sketchy
350
3B
  3
Thicken
350
36
  3
Wireframe
350
30
  3
X-Ray
350
3C
  0
XRECORD
  5
14EB
102
{ACAD_REACTORS
330
C
102
}
330
C
100
AcDbXrecord
280
     1
 90
        1
330
64
  0
DICTIONARY
  5
548
102
{ACAD_REACTORS
330
C
102
}
330
C
100
AcDbDictionary
281
     1
  3
CANNOSCALE
350
54B
  3
CMLEADERSTYLE
350
54A
  3
CTABLESTYLE
350
549
  3
DIMASSOC
350
54E
  3
INDEXCTL
350
54D
  3
SORTENTS
350
54C
  3
XCLIPFRAME
350
142B
  0
XRECORD
  5
14EC
102
{ACAD_REACTORS
330
C
102
}
330
C
100
AcDbXrecord
280
     1
  1
DWGPROPS COOKIE
  2

  3

  4

  6

  7

  8
imamura
  9

300
=
301
=
302
=
303
=
304
=
305
=
306
=
307
=
308
=
309
=
 40
0.1229921759259259
 41
2456071.587976378
 42
2456850.656287917
  1

 90
        0
  0
DICTIONARY
  5
3EC
102
{ACAD_REACTORS
330
3EB
102
}
330
3EB
100
AcDbDictionary
281
     1
  0
XRECORD
  5
545
102
{ACAD_REACTORS
330
544
102
}
330
544
100
AcDbXrecord
280
     1
290
     1
  0
SORTENTSTABLE
  5
659
102
{ACAD_REACTORS
330
658
102
}
330
658
100
AcDbSortentsTable
330
6B
331
14C4
  5
E1A
331
14C0
  5
E16
331
14BC
  5
E12
331
14B8
  5
E0B
331
D8C
  5
D8C
331
148D
  5
DDC
331
DC7
  5
DC7
331
D88
  5
D88
331
1489
  5
DD8
331
D84
  5
D84
331
DC3
  5
DC3
331
E06
  5
E54
331
D80
  5
D80
331
E7C
  5
EBB
331
E02
  5
E50
331
EB7
  5
127B
331
E3D
  5
E7C
331
126E
  5
14CD
331
E78
  5
EB7
331
E39
  5
E78
331
EB3
  5
1275
331
DFA
  5
E4C
331
126A
  5
14D0
331
E74
  5
EB3
331
E70
  5
EAF
331
1252
  5
14C3
331
14B4
  5
E07
331
14B0
  5
E03
331
14AC
  5
DFD
331
DBF
  5
DBF
331
14A8
  5
DF7
331
D7C
  5
D7C
331
DBB
  5
DBB
331
147D
  5
1490
331
DB7
  5
DB7
331
D78
  5
D78
331
D74
  5
D74
331
DB3
  5
DB3
331
E35
  5
E74
331
D70
  5
D70
331
EAF
  5
126F
331
DF6
  5
E48
331
E31
  5
E70
331
EAB
  5
1265
331
DF2
  5
E44
331
E6C
  5
EAB
331
E2D
  5
E6C
331
EA7
  5
125D
331
DEE
  5
E40
331
124E
  5
14BF
331
12CD
  5
12ED
331
E68
  5
EA7
331
EA3
  5
1241
331
DEA
  5
E3C
331
E64
  5
EA3
331
EDE
  5
1476
331
1295
  5
146F
331
E60
  5
E9F
331
1291
  5
14E4
331
EDA
  5
1472
331
14E7
  5
1482
331
14E3
  5
148E
331
14A4
  5
DF3
331
14DF
  5
149D
331
14A0
  5
DEF
331
14DB
  5
14A4
331
149C
  5
DEB
331
DAF
  5
DAF
331
1471
  5
14AA
331
1498
  5
DE7
331
DAB
  5
DAB
331
DA7
  5
DA7
331
DA3
  5
DA3
331
E9F
  5
F8C
331
DE6
  5
E38
331
E9B
  5
F7A
331
DE2
  5
E34
331
E5C
  5
E9B
331
E97
  5
EE8
331
DDE
  5
E30
331
128D
  5
14DC
331
E58
  5
E97
331
E19
  5
E64
331
E93
  5
ED8
331
DDA
  5
E2C
331
E54
  5
E93
331
ECE
  5
12D2
331
E50
  5
E8F
331
ECA
  5
12CE
331
14D7
  5
14A6
331
14D3
  5
14AD
331
1494
  5
DE3
331
14CF
  5
14AF
331
1490
  5
DDF
331
14CB
  5
14B6
331
EE2
  5
147A
331
D9F
  5
D9F
331
D9B
  5
D9B
331
D97
  5
D97
331
D93
  5
D93
331
E15
  5
E60
331
E8F
  5
ECE
331
E11
  5
E5C
331
E8B
  5
ECA
331
E4C
  5
E8B
331
DD2
  5
DD2
331
E87
  5
EC6
331
127D
  5
14DF
331
E48
  5
E87
331
DCE
  5
DCE
331
EC6
  5
129D
331
E09
  5
E57
331
E83
  5
EC2
331
1279
  5
14D7
331
E44
  5
E83
331
EC2
  5
1295
331
DCA
  5
DCA
331
EBE
  5
1290
331
E40
  5
E7F
331
1271
  5
14CA
331
EBA
  5
127F
331
14C7
  5
14BC
331
14C3
  5
E19
331
14BF
  5
E15
331
14BB
  5
E11
331
D8F
  5
D8F
331
D8B
  5
D8B
331
148C
  5
DDB
331
DC6
  5
DC6
331
D87
  5
D87
331
1488
  5
DD7
331
D83
  5
D83
331
DC2
  5
DC2
331
E7F
  5
EBE
331
E05
  5
E53
331
E7B
  5
EBA
331
E01
  5
E4F
331
E3C
  5
E7B
331
EB6
  5
1279
331
DFD
  5
E4D
331
126D
  5
14CE
331
E77
  5
EB6
331
E38
  5
E77
331
EB2
  5
1273
331
DF9
  5
E4B
331
1269
  5
14D2
331
E73
  5
EB2
331
12D4
  5
14D1
331
1255
  5
14C6
331
12D0
  5
14D3
331
1251
  5
14C2
331
14B7
  5
E0A
331
14B3
  5
E06
331
14AF
  5
E02
331
1484
  5
147E
331
14AB
  5
DFA
331
D7F
  5
D7F
331
DBE
  5
DBE
331
D7B
  5
D7B
331
DBA
  5
DBA
331
147C
  5
148F
331
DB6
  5
DB6
331
D77
  5
D77
331
1478
  5
14A1
331
D73
  5
D73
331
DB2
  5
DB2
331
E34
  5
E73
331
EAE
  5
126D
331
DF5
  5
E47
331
E6F
  5
EAE
331
E30
  5
E6F
331
EAA
  5
1263
331
DF1
  5
E43
331
E6B
  5
EAA
331
E2C
  5
E6B
331
EA6
  5
1245
331
DED
  5
E3F
331
124D
  5
14BE
331
12CC
  5
146E
331
E67
  5
EA6
331
EA2
  5
1240
331
DE9
  5
E3B
331
E63
  5
EA2
331
EDD
  5
1475
331
1294
  5
12EC
331
1290
  5
14DE
331
ED9
  5
1471
331
14E6
  5
148A
331
14A7
  5
DF6
331
14E2
  5
149A
331
14A3
  5
DF2
331
14DE
  5
149C
331
149F
  5
DEE
331
14DA
  5
14A3
331
149B
  5
DEA
331
D6F
  5
D6F
331
DAE
  5
DAE
331
1470
  5
14A9
331
DAA
  5
DAA
331
12ED
  5
14E9
331
146C
  5
14B5
331
DA6
  5
DA6
331
DA2
  5
DA2
331
E9E
  5
F8B
331
DE5
  5
E37
331
E5F
  5
E9E
331
E20
  5
E69
331
E9A
  5
F0F
331
DE1
  5
E33
331
E5B
  5
E9A
331
E1C
  5
E67
331
E96
  5
EE3
331
DDD
  5
E2F
331
E57
  5
E96
331
E18
  5
E63
331
E92
  5
ED1
331
DD9
  5
E26
331
1288
  5
14D6
331
ED1
  5
12EB
331
E53
  5
E92
331
ECD
  5
12D1
331
1280
  5
14E1
331
EC9
  5
12CD
331
14D6
  5
14A5
331
1497
  5
DE6
331
14D2
  5
14AC
331
1493
  5
DE2
331
14CE
  5
14B2
331
14CA
  5
14BB
331
EE1
  5
1479
331
D9E
  5
D9E
331
D9A
  5
D9A
331
D96
  5
D96
331
D92
  5
D92
331
E14
  5
E5F
331
E8E
  5
ECD
331
DD5
  5
DD5
331
E4F
  5
E8E
331
E10
  5
E5B
331
E8A
  5
EC9
331
E4B
  5
E8A
331
DD1
  5
DD1
331
E0C
  5
E5A
331
E86
  5
EC5
331
127C
  5
14D9
331
E47
  5
E86
331
EC5
  5
1298
331
DCD
  5
DCD
331
E08
  5
E56
331
E82
  5
EC1
331
EC1
  5
1293
331
E43
  5
E82
331
DC9
  5
DC9
331
1274
  5
14C7
331
EBD
  5
128F
331
1270
  5
14CB
331
EB9
  5
127E
331
14C6
  5
E1C
331
14C2
  5
E18
331
14BE
  5
E14
331
14BA
  5
E10
331
D8E
  5
D8E
331
148F
  5
DDE
331
D8A
  5
D8A
331
148B
  5
DDA
331
D86
  5
D86
331
DC5
  5
DC5
331
D82
  5
D82
331
DC1
  5
DC1
331
E7E
  5
EBD
331
E04
  5
E52
331
E7A
  5
EB9
331
E3F
  5
E7E
331
EB5
  5
1278
331
E3B
  5
E7A
331
E76
  5
EB5
331
EB1
  5
1272
331
DF8
  5
E4A
331
E72
  5
EB1
331
1254
  5
14C5
331
1250
  5
14C1
331
14B6
  5
E09
331
14B2
  5
E05
331
14AE
  5
E01
331
14E9
  5
1484
331
1483
  5
147D
331
14AA
  5
DF9
331
D7E
  5
D7E
331
DBD
  5
DBD
331
DB9
  5
DB9
331
D7A
  5
D7A
331
DB5
  5
DB5
331
D76
  5
D76
331
E37
  5
E76
331
D72
  5
D72
331
DB1
  5
DB1
331
E33
  5
E72
331
EAD
  5
126A
331
DF4
  5
E46
331
E6E
  5
EAD
331
E2F
  5
E6E
331
EA9
  5
1260
331
DF0
  5
E42
331
E6A
  5
EA9
331
EA5
  5
1243
331
DEC
  5
E3E
331
124C
  5
14BD
331
12CB
  5
146D
331
E66
  5
EA5
331
EA1
  5
123F
331
DE8
  5
E3A
331
E62
  5
EA1
331
EDC
  5
1474
331
1293
  5
146C
331
ED8
  5
1470
331
14E5
  5
1489
331
14A6
  5
DF5
331
14E1
  5
1496
331
14A2
  5
DF1
331
14DD
  5
149B
331
1477
  5
14A0
331
149E
  5
DED
331
14D9
  5
14A2
331
149A
  5
DE9
331
D6E
  5
D6E
331
DAD
  5
DAD
331
DA9
  5
DA9
331
12EC
  5
14E8
331
146B
  5
14B4
331
DA5
  5
DA5
331
DA1
  5
DA1
331
E9D
  5
F7C
331
DE4
  5
E36
331
E5E
  5
E9D
331
E99
  5
F0E
331
DE0
  5
E32
331
128F
  5
14E0
331
E5A
  5
E99
331
E1B
  5
E66
331
E95
  5
EE0
331
DDC
  5
E2E
331
E56
  5
E95
331
E91
  5
ED0
331
DD8
  5
E20
331
1287
  5
14D8
331
ED0
  5
12D4
331
E52
  5
E91
331
ECC
  5
12D0
331
EC8
  5
12CC
331
14D5
  5
14A8
331
1496
  5
DE5
331
14D1
  5
14B1
331
1492
  5
DE1
331
14CD
  5
14B8
331
14C9
  5
14BA
331
EE0
  5
1478
331
D9D
  5
D9D
331
D99
  5
D99
331
D95
  5
D95
331
E17
  5
E62
331
D91
  5
D91
331
E13
  5
E5E
331
E8D
  5
ECC
331
DD4
  5
DD4
331
E4E
  5
E8D
331
E89
  5
EC8
331
127F
  5
14E3
331
E4A
  5
E89
331
DD0
  5
DD0
331
E0B
  5
E59
331
E85
  5
EC4
331
127B
  5
14DB
331
E46
  5
E85
331
EC4
  5
1297
331
DCC
  5
DCC
331
E81
  5
EC0
331
1277
  5
14D4
331
E42
  5
E81
331
EC0
  5
1292
331
DC8
  5
DC8
331
1273
  5
14C8
331
EBC
  5
128E
331
EB8
  5
127C
331
14C5
  5
E1B
331
14C1
  5
E17
331
14BD
  5
E13
331
14B9
  5
E0C
331
D8D
  5
D8D
331
148E
  5
DDD
331
D89
  5
D89
331
148A
  5
DD9
331
D85
  5
D85
331
DC4
  5
DC4
331
E07
  5
E55
331
D81
  5
D81
331
DC0
  5
DC0
331
E7D
  5
EBC
331
E03
  5
E51
331
E3E
  5
E7D
331
126F
  5
14CC
331
E79
  5
EB8
331
DFF
  5
E4E
331
EB4
  5
1276
331
E3A
  5
E79
331
126B
  5
14CF
331
E75
  5
EB4
331
EB0
  5
1270
331
E71
  5
EB0
331
1253
  5
14C4
331
14B5
  5
E08
331
14B1
  5
E04
331
14AD
  5
DFF
331
14E8
  5
1483
331
1482
  5
147C
331
14A9
  5
DF8
331
D7D
  5
D7D
331
DBC
  5
DBC
331
147E
  5
1494
331
DB8
  5
DB8
331
D79
  5
D79
331
D75
  5
D75
331
DB4
  5
DB4
331
E36
  5
E75
331
D71
  5
D71
331
DF7
  5
E49
331
DB0
  5
DB0
331
E32
  5
E71
331
EAC
  5
1266
331
DF3
  5
E45
331
E6D
  5
EAC
331
E2E
  5
E6D
331
EA8
  5
125F
331
DEF
  5
E41
331
124F
  5
14C0
331
12CE
  5
146A
331
E69
  5
EA8
331
EA4
  5
1242
331
DEB
  5
E3D
331
E65
  5
EA4
331
EA0
  5
122A
331
EDF
  5
1477
331
1296
  5
146B
331
E61
  5
EA0
331
1292
  5
14E2
331
EDB
  5
1473
331
14E4
  5
1488
331
14A5
  5
DF4
331
14E0
  5
1495
331
14A1
  5
DF0
331
14DC
  5
149E
331
1476
  5
149F
331
149D
  5
DEC
331
14D8
  5
14A7
331
1472
  5
14AB
331
1499
  5
DE8
331
D6D
  5
D6D
331
DAC
  5
DAC
331
DA8
  5
DA8
331
12EB
  5
14E7
331
146A
  5
14B3
331
DA4
  5
DA4
331
E26
  5
E6A
331
DE7
  5
E39
331
DA0
  5
DA0
331
E9C
  5
F7B
331
DE3
  5
E35
331
E5D
  5
E9C
331
E1E
  5
E68
331
E98
  5
F0D
331
DDF
  5
E31
331
128E
  5
14DA
331
E59
  5
E98
331
E1A
  5
E65
331
E94
  5
ED9
331
DDB
  5
E2D
331
E55
  5
E94
331
E90
  5
ECF
331
1286
  5
14E6
331
E51
  5
E90
331
ECF
  5
12D3
331
1282
  5
14E5
331
ECB
  5
12CF
331
14D4
  5
14AE
331
1495
  5
DE4
331
14D0
  5
14B0
331
1491
  5
DE0
331
14CC
  5
14B7
331
EE3
  5
147B
331
14C8
  5
14B9
331
D9C
  5
D9C
331
D98
  5
D98
331
D94
  5
D94
331
E16
  5
E61
331
DD7
  5
E1E
331
D90
  5
D90
331
E12
  5
E5D
331
E8C
  5
ECB
331
DD3
  5
DD3
331
E4D
  5
E8C
331
E88
  5
EC7
331
127E
  5
14DD
331
E49
  5
E88
331
DCF
  5
DCF
331
EC7
  5
12CB
331
E0A
  5
E58
331
E84
  5
EC3
331
127A
  5
14D5
331
E45
  5
E84
331
EC3
  5
1296
331
DCB
  5
DCB
331
E80
  5
EBF
331
EBF
  5
1291
331
E41
  5
E80
331
1272
  5
14C9
331
EBB
  5
1281
  0
XRECORD
  5
14EF
102
{ACAD_REACTORS
330
14ED
102
}
330
14ED
100
AcDbXrecord
280
     1
 70
     2
  0
XRECORD
  5
14EE
102
{ACAD_REACTORS
330
14ED
102
}
330
14ED
100
AcDbXrecord
280
     1
 40
1.25
  0
XRECORD
  5
14F0
102
{ACAD_REACTORS
330
14ED
102
}
330
14ED
100
AcDbXrecord
280
     1
 40
1.570796326794896
  0
LAYOUT
  5
6E
102
{ACAD_XDICTIONARY
360
1524
102
}
102
{ACAD_REACTORS
330
61
102
}
330
61
100
AcDbPlotSettings
  1

  2
none_device
  4
Letter_(8.50_x_11.00_Inches)
  6

 40
6.349999904632567
 41
6.349999904632567
 42
6.350006103515625
 43
6.350006103515625
 44
215.8999938964844
 45
279.3999938964844
 46
0.0
 47
0.0
 48
0.0
 49
0.0
140
0.0
141
0.0
142
1.0
143
50.74625266341119
 70
 11952
 72
     0
 73
     1
 74
     0
  7

 75
     0
147
0.0197058885634922
148
-11316.40893689787
149
471.5723292380486
100
AcDbLayout
  1
Model
 70
     1
 71
     0
 10
0.0
 20
0.0
 11
12.0
 21
9.0
 12
0.0
 22
0.0
 32
0.0
 14
0.0
 24
0.0
 34
0.0
 15
0.0
 25
0.0
 35
0.0
146
0.0
 13
0.0
 23
0.0
 33
0.0
 16
1.0
 26
0.0
 36
0.0
 17
0.0
 27
1.0
 37
0.0
 76
     0
330
6B
331
8B
1001
ACAD_PSEXT
1000
なし
1000
なし
1000
適切ではありません
1000
新しいプロッタ環境設定名を選択しない限り、レイアウトは印刷されません。
1070
     0
  0
LAYOUT
  5
6A
102
{ACAD_XDICTIONARY
360
1522
102
}
102
{ACAD_REACTORS
330
61
102
}
330
61
100
AcDbPlotSettings
  1

  2
FX DP 205
  4

  6

 40
0.0
 41
0.0
 42
0.0
 43
0.0
 44
0.0
 45
0.0
 46
0.0
 47
0.0
 48
0.0
 49
0.0
140
0.0
141
0.0
142
1.0
143
1.0
 70
   688
 72
     0
 73
     0
 74
     5
  7

 75
    16
147
1.0
148
0.0
149
0.0
100
AcDbLayout
  1
レイアウト1
 70
     1
 71
     1
 10
0.0
 20
0.0
 11
12.0
 21
9.0
 12
0.0
 22
0.0
 32
0.0
 14
1.000000000000000E+20
 24
1.000000000000000E+20
 34
1.000000000000000E+20
 15
-1.000000000000000E+20
 25
-1.000000000000000E+20
 35
-1.000000000000000E+20
146
0.0
 13
0.0
 23
0.0
 33
0.0
 16
1.0
 26
0.0
 36
0.0
 17
0.0
 27
1.0
 37
0.0
 76
     0
330
67
  0
MATERIAL
  5
19
102
{ACAD_XDICTIONARY
360
1A
102
}
102
{ACAD_REACTORS
330
10
102
}
330
10
100
AcDbMaterial
  1
ByBlock
 72
     0
 43
0.0208333333333333
 43
0.0
 43
0.0
 43
0.0
 43
0.0
 43
0.0208333333333333
 43
0.0
 43
0.0
 43
0.0
 43
0.0
 43
1.0
 43
0.0
 43
0.0
 43
0.0
 43
0.0
 43
1.0
 77
     0
 47
0.0208333333333333
 47
0.0
 47
0.0
 47
0.0
 47
0.0
 47
0.0208333333333333
 47
0.0
 47
0.0
 47
0.0
 47
0.0
 47
1.0
 47
0.0
 47
0.0
 47
0.0
 47
0.0
 47
1.0
171
     0
 49
0.0208333333333333
 49
0.0
 49
0.0
 49
0.0
 49
0.0
 49
0.0208333333333333
 49
0.0
 49
0.0
 49
0.0
 49
0.0
 49
1.0
 49
0.0
 49
0.0
 49
0.0
 49
0.0
 49
1.0
175
     0
142
0.0208333333333333
142
0.0
142
0.0
142
0.0
142
0.0
142
0.0208333333333333
142
0.0
142
0.0
142
0.0
142
0.0
142
1.0
142
0.0
142
0.0
142
0.0
142
0.0
142
1.0
179
     0
144
0.0208333333333333
144
0.0
144
0.0
144
0.0
144
0.0
144
0.0208333333333333
144
0.0
144
0.0
144
0.0
144
0.0
144
1.0
144
0.0
144
0.0
144
0.0
144
0.0
144
1.0
147
0.0208333333333333
147
0.0
147
0.0
147
0.0
147
0.0
147
0.0208333333333333
147
0.0
147
0.0
147
0.0
147
0.0
147
1.0
147
0.0
147
0.0
147
0.0
147
0.0
147
1.0
  0
MATERIAL
  5
11
102
{ACAD_XDICTIONARY
360
12
102
}
102
{ACAD_REACTORS
330
10
102
}
330
10
100
AcDbMaterial
  1
ByLayer
 72
     0
 43
0.0208333333333333
 43
0.0
 43
0.0
 43
0.0
 43
0.0
 43
0.0208333333333333
 43
0.0
 43
0.0
 43
0.0
 43
0.0
 43
1.0
 43
0.0
 43
0.0
 43
0.0
 43
0.0
 43
1.0
 77
     0
 47
0.0208333333333333
 47
0.0
 47
0.0
 47
0.0
 47
0.0
 47
0.0208333333333333
 47
0.0
 47
0.0
 47
0.0
 47
0.0
 47
1.0
 47
0.0
 47
0.0
 47
0.0
 47
0.0
 47
1.0
171
     0
 49
0.0208333333333333
 49
0.0
 49
0.0
 49
0.0
 49
0.0
 49
0.0208333333333333
 49
0.0
 49
0.0
 49
0.0
 49
0.0
 49
1.0
 49
0.0
 49
0.0
 49
0.0
 49
0.0
 49
1.0
175
     0
142
0.0208333333333333
142
0.0
142
0.0
142
0.0
142
0.0
142
0.0208333333333333
142
0.0
142
0.0
142
0.0
142
0.0
142
1.0
142
0.0
142
0.0
142
0.0
142
0.0
142
1.0
179
     0
144
0.0208333333333333
144
0.0
144
0.0
144
0.0
144
0.0
144
0.0208333333333333
144
0.0
144
0.0
144
0.0
144
0.0
144
1.0
144
0.0
144
0.0
144
0.0
144
0.0
144
1.0
147
0.0208333333333333
147
0.0
147
0.0
147
0.0
147
0.0
147
0.0208333333333333
147
0.0
147
0.0
147
0.0
147
0.0
147
1.0
147
0.0
147
0.0
147
0.0
147
0.0
147
1.0
  0
MATERIAL
  5
21
102
{ACAD_XDICTIONARY
360
22
102
}
102
{ACAD_REACTORS
330
10
102
}
330
10
100
AcDbMaterial
  1
Global
 72
     0
 43
0.0208333333333333
 43
0.0
 43
0.0
 43
0.0
 43
0.0
 43
0.0208333333333333
 43
0.0
 43
0.0
 43
0.0
 43
0.0
 43
1.0
 43
0.0
 43
0.0
 43
0.0
 43
0.0
 43
1.0
 77
     0
 47
0.0208333333333333
 47
0.0
 47
0.0
 47
0.0
 47
0.0
 47
0.0208333333333333
 47
0.0
 47
0.0
 47
0.0
 47
0.0
 47
1.0
 47
0.0
 47
0.0
 47
0.0
 47
0.0
 47
1.0
171
     0
 49
0.0208333333333333
 49
0.0
 49
0.0
 49
0.0
 49
0.0
 49
0.0208333333333333
 49
0.0
 49
0.0
 49
0.0
 49
0.0
 49
1.0
 49
0.0
 49
0.0
 49
0.0
 49
0.0
 49
1.0
175
     0
142
0.0208333333333333
142
0.0
142
0.0
142
0.0
142
0.0
142
0.0208333333333333
142
0.0
142
0.0
142
0.0
142
0.0
142
1.0
142
0.0
142
0.0
142
0.0
142
0.0
142
1.0
179
     0
144
0.0208333333333333
144
0.0
144
0.0
144
0.0
144
0.0
144
0.0208333333333333
144
0.0
144
0.0
144
0.0
144
0.0
144
1.0
144
0.0
144
0.0
144
0.0
144
0.0
144
1.0
147
0.0208333333333333
147
0.0
147
0.0
147
0.0
147
0.0
147
0.0208333333333333
147
0.0
147
0.0
147
0.0
147
0.0
147
1.0
147
0.0
147
0.0
147
0.0
147
0.0
147
1.0
  0
MLEADERSTYLE
  5
66
102
{ACAD_REACTORS
330
65
102
}
330
65
100
AcDbMLeaderStyle
170
     2
171
     1
172
     0
 90
        2
 40
0.0
 41
0.0
173
     1
 91
-1056964608
340
5A
 92
       -2
290
     1
 42
0.09
291
     1
 43
0.36
  3
Standard
 44
0.18
300

342
55
174
     1
178
     6
175
     1
176
     0
 93
-1056964608
 45
0.18
292
     0
297
     0
 46
0.18
 94
-1056964608
 47
1.0
 49
1.0
140
1.0
293
     1
141
0.0
294
     1
177
     0
142
1.0
295
     0
296
     0
143
0.125
1001
ACAD_MLEADERVER
1070
     2
  0
MLINESTYLE
  5
5F
102
{ACAD_REACTORS
330
5E
102
}
330
5E
100
AcDbMlineStyle
  2
STANDARD
 70
     0
  3

 62
   256
 51
90.0
 52
90.0
 71
     2
 49
0.5
 62
   256
  6
BYLAYER
 49
-0.5
 62
   256
  6
BYLAYER
  0
ACDBPLACEHOLDER
  5
F
102
{ACAD_REACTORS
330
E
102
}
330
E
  0
SCALE
  5
43
102
{ACAD_REACTORS
330
42
102
}
330
42
100
AcDbScale
 70
     0
300
1:1
140
1.0
141
1.0
290
     1
  0
SCALE
  5
44
102
{ACAD_REACTORS
330
42
102
}
330
42
100
AcDbScale
 70
     0
300
1/128" = 1'-0"
140
0.0078125
141
12.0
290
     0
  0
SCALE
  5
45
102
{ACAD_REACTORS
330
42
102
}
330
42
100
AcDbScale
 70
     0
300
1/64" = 1'-0"
140
0.015625
141
12.0
290
     0
  0
SCALE
  5
46
102
{ACAD_REACTORS
330
42
102
}
330
42
100
AcDbScale
 70
     0
300
1/32" = 1'-0"
140
0.03125
141
12.0
290
     0
  0
SCALE
  5
47
102
{ACAD_REACTORS
330
42
102
}
330
42
100
AcDbScale
 70
     0
300
1/16" = 1'-0"
140
0.0625
141
12.0
290
     0
  0
SCALE
  5
48
102
{ACAD_REACTORS
330
42
102
}
330
42
100
AcDbScale
 70
     0
300
3/32" = 1'-0"
140
0.09375
141
12.0
290
     0
  0
SCALE
  5
49
102
{ACAD_REACTORS
330
42
102
}
330
42
100
AcDbScale
 70
     0
300
1/8" = 1'-0"
140
0.125
141
12.0
290
     0
  0
SCALE
  5
4A
102
{ACAD_REACTORS
330
42
102
}
330
42
100
AcDbScale
 70
     0
300
3/16" = 1'-0"
140
0.1875
141
12.0
290
     0
  0
SCALE
  5
4B
102
{ACAD_REACTORS
330
42
102
}
330
42
100
AcDbScale
 70
     0
300
1/4" = 1'-0"
140
0.25
141
12.0
290
     0
  0
SCALE
  5
4C
102
{ACAD_REACTORS
330
42
102
}
330
42
100
AcDbScale
 70
     0
300
3/8" = 1'-0"
140
0.375
141
12.0
290
     0
  0
SCALE
  5
4D
102
{ACAD_REACTORS
330
42
102
}
330
42
100
AcDbScale
 70
     0
300
1/2" = 1'-0"
140
0.5
141
12.0
290
     0
  0
SCALE
  5
4E
102
{ACAD_REACTORS
330
42
102
}
330
42
100
AcDbScale
 70
     0
300
3/4" = 1'-0"
140
0.75
141
12.0
290
     0
  0
SCALE
  5
4F
102
{ACAD_REACTORS
330
42
102
}
330
42
100
AcDbScale
 70
     0
300
1" = 1'-0"
140
1.0
141
12.0
290
     0
  0
SCALE
  5
50
102
{ACAD_REACTORS
330
42
102
}
330
42
100
AcDbScale
 70
     0
300
1-1/2" = 1'-0"
140
1.5
141
12.0
290
     0
  0
SCALE
  5
51
102
{ACAD_REACTORS
330
42
102
}
330
42
100
AcDbScale
 70
     0
300
3" = 1'-0"
140
3.0
141
12.0
290
     0
  0
SCALE
  5
52
102
{ACAD_REACTORS
330
42
102
}
330
42
100
AcDbScale
 70
     0
300
6" = 1'-0"
140
6.0
141
12.0
290
     0
  0
SCALE
  5
53
102
{ACAD_REACTORS
330
42
102
}
330
42
100
AcDbScale
 70
     0
300
1'-0" = 1'-0"
140
12.0
141
12.0
290
     0
  0
TABLESTYLE
  5
64
102
{ACAD_XDICTIONARY
360
550
102
}
102
{ACAD_REACTORS
330
63
102
}
330
63
100
AcDbTableStyle
  3
Standard
 70
     0
 71
     0
 40
0.06
 41
0.06
280
     0
281
     0
  7
STANDARD
140
0.18
170
     2
 62
     0
 63
     7
283
     0
274
    -2
284
     1
 64
     0
275
    -2
285
     1
 65
     0
276
    -2
286
     1
 66
     0
277
    -2
287
     1
 67
     0
278
    -2
288
     1
 68
     0
279
    -2
289
     1
 69
     0
  7
STANDARD
140
0.25
170
     5
 62
     0
 63
     7
283
     0
274
    -2
284
     1
 64
     0
275
    -2
285
     1
 65
     0
276
    -2
286
     1
 66
     0
277
    -2
287
     1
 67
     0
278
    -2
288
     1
 68
     0
279
    -2
289
     1
 69
     0
  7
STANDARD
140
0.18
170
     5
 62
     0
 63
     7
283
     0
274
    -2
284
     1
 64
     0
275
    -2
285
     1
 65
     0
276
    -2
286
     1
 66
     0
277
    -2
287
     1
 67
     0
278
    -2
288
     1
 68
     0
279
    -2
289
     1
 69
     0
  0
VISUALSTYLE
  5
2F
102
{ACAD_XDICTIONARY
360
14FB
102
}
102
{ACAD_REACTORS
330
29
102
}
330
29
100
AcDbVisualStyle
  2

 70
     4
 71
     0
 72
     2
 73
     0
 90
        0
 40
-0.6
 41
-30.0
 62
     5
 63
     7
 74
     1
 91
        4
 64
     7
 65
   257
 75
     1
175
     1
 42
1.0
 92
        0
 66
   257
 43
1.0
 76
     1
 77
     6
 78
     2
 67
     7
 79
     5
170
     0
171
     0
290
     0
174
     0
 93
        1
 44
0.0
173
     0
291
     0
 45
0.0
1001
ACAD
1000
AcDbSavedByObjectVersion
1070
     0
  0
VISUALSTYLE
  5
3EA
102
{ACAD_XDICTIONARY
360
1526
102
}
102
{ACAD_REACTORS
330
29
102
}
330
29
100
AcDbVisualStyle
  2

 70
     5
 71
     0
 72
     2
 73
     1
 90
        0
 40
-0.6
 41
-30.0
 62
     5
 63
     7
 74
     1
 91
        4
 64
     7
 65
   257
 75
     1
175
     1
 42
1.0
 92
        0
 66
   257
 43
1.0
 76
     1
 77
     6
 78
     2
 67
     7
 79
     5
170
     0
171
     0
290
     0
174
     0
 93
        1
 44
0.0
173
     0
291
     0
 45
0.0
1001
ACAD
1000
AcDbSavedByObjectVersion
1070
     0
  0
VISUALSTYLE
  5
2E
102
{ACAD_XDICTIONARY
360
14F9
102
}
102
{ACAD_REACTORS
330
29
102
}
330
29
100
AcDbVisualStyle
  2

 70
     7
 71
     1
 72
     0
 73
     1
 90
        0
 40
-0.6
 41
-30.0
 62
     5
 63
     7
 74
     0
 91
        4
 64
     7
 65
   257
 75
     1
175
     1
 42
1.0
 92
        8
 66
     7
 43
1.0
 76
     1
 77
     6
 78
     2
 67
     7
 79
     5
170
     0
171
     0
290
     0
174
     0
 93
        1
 44
0.0
173
     0
291
     1
 45
0.0
1001
ACAD
1000
AcDbSavedByObjectVersion
1070
     0
  0
VISUALSTYLE
  5
35
102
{ACAD_XDICTIONARY
360
1507
102
}
102
{ACAD_REACTORS
330
29
102
}
330
29
100
AcDbVisualStyle
  2

 70
    12
 71
     2
 72
     2
 73
     0
 90
        0
 40
-0.6
 41
-30.0
 62
     5
 63
     7
 74
     1
 91
        4
 64
     7
 65
   257
 75
     1
175
     1
 42
1.0
 92
        8
 66
     7
 43
1.0
 76
     1
 77
     6
 78
     2
 67
     7
 79
     5
170
     0
171
     0
290
     0
174
     0
 93
        1
 44
50.0
173
     0
291
     1
 45
0.0
1001
ACAD
1000
AcDbSavedByObjectVersion
1070
     0
  0
VISUALSTYLE
  5
39
102
{ACAD_XDICTIONARY
360
150F
102
}
102
{ACAD_REACTORS
330
29
102
}
330
29
100
AcDbVisualStyle
  2

 70
    16
 71
     2
 72
     2
 73
     3
 90
        0
 40
-0.6
 41
-30.0
 62
     5
 63
     8
 74
     1
 91
        4
 64
     7
 65
   257
 75
     1
175
     1
 42
1.0
 92
        8
 66
     8
 43
1.0
 76
     1
 77
     6
 78
     2
 67
     7
 79
     5
170
     0
171
     0
290
     0
174
     0
 93
        1
 44
0.0
173
     0
291
     1
 45
0.0
1001
ACAD
1000
AcDbSavedByObjectVersion
1070
     0
  0
VISUALSTYLE
  5
32
102
{ACAD_XDICTIONARY
360
1501
102
}
102
{ACAD_REACTORS
330
29
102
}
330
29
100
AcDbVisualStyle
  2

 70
     9
 71
     3
 72
     2
 73
     0
 90
        0
 40
-0.6
 41
-30.0
 62
     5
 63
     7
 74
     2
 91
        2
 64
     7
 65
   257
 75
     1
175
     1
 42
179.0
 92
        8
 66
     7
 43
1.0
 76
     1
 77
     6
 78
     2
 67
     7
 79
     3
170
     0
171
     0
290
     0
174
     0
 93
        1
 44
0.0
173
     0
291
     0
 45
0.0
1001
ACAD
1000
AcDbSavedByObjectVersion
1070
     0
  0
VISUALSTYLE
  5
34
102
{ACAD_XDICTIONARY
360
1505
102
}
102
{ACAD_REACTORS
330
29
102
}
330
29
100
AcDbVisualStyle
  2

 70
    11
 71
     2
 72
     2
 73
     0
 90
        0
 40
-0.6
 41
-30.0
 62
     5
 63
     7
 74
     1
 91
        4
 64
     7
 65
   257
 75
     1
175
     1
 42
1.0
 92
        8
 66
     7
 43
1.0
 76
     1
 77
     6
 78
     2
 67
     7
 79
     5
170
     0
171
     0
290
     0
174
     0
 93
        1
 44
-50.0
173
     0
291
     1
 45
0.0
1001
ACAD
1000
AcDbSavedByObjectVersion
1070
     0
  0
VISUALSTYLE
  5
41
102
{ACAD_XDICTIONARY
360
151F
102
}
102
{ACAD_REACTORS
330
29
102
}
330
29
100
AcDbVisualStyle
  2

 70
    22
 71
     2
 72
     2
 73
     0
 90
        0
 40
-0.6
 41
-30.0
 62
     5
 63
     7
 74
     1
 91
        4
 64
     7
 65
   257
 75
     1
175
     1
 42
1.0
 92
        8
 66
     7
 43
1.0
 76
     1
 77
     6
 78
     2
 67
     7
 79
     5
170
     0
171
     0
290
     0
174
     0
 93
        1
 44
0.0
173
     0
291
     1
 45
0.0
1001
ACAD
1000
AcDbSavedByObjectVersion
1070
     0
  0
VISUALSTYLE
  5
38
102
{ACAD_XDICTIONARY
360
150D
102
}
102
{ACAD_REACTORS
330
29
102
}
330
29
100
AcDbVisualStyle
  2

 70
    15
 71
     2
 72
     2
 73
     0
 90
        0
 40
-0.6
 41
-30.0
 62
     5
 63
     7
 74
     1
 91
        4
 64
     7
 65
   257
 75
     1
175
     1
 42
1.0
 92
        8
 66
     7
 43
1.0
 76
     1
 77
     6
 78
     2
 67
     7
 79
     5
170
     0
171
     0
290
     0
174
     0
 93
        1
 44
0.0
173
     0
291
     1
 45
0.0
1001
ACAD
1000
AcDbSavedByObjectVersion
1070
     0
  0
VISUALSTYLE
  5
2A
102
{ACAD_XDICTIONARY
360
14F1
102
}
102
{ACAD_REACTORS
330
29
102
}
330
29
100
AcDbVisualStyle
  2

 70
     0
 71
     2
 72
     1
 73
     1
 90
        2
 40
-0.6
 41
30.0
 62
     5
 63
     7
 74
     0
 91
        0
 64
     7
 65
   257
 75
     1
175
     1
 42
1.0
 92
        8
 66
     7
 43
1.0
 76
     1
 77
     6
 78
     2
 67
     7
 79
     5
170
     0
171
     0
290
     0
174
     0
 93
       13
 44
0.0
173
     0
291
     1
 45
0.0
1001
ACAD
1000
AcDbSavedByObjectVersion
1070
     0
  0
VISUALSTYLE
  5
2B
102
{ACAD_XDICTIONARY
360
14F3
102
}
102
{ACAD_REACTORS
330
29
102
}
330
29
100
AcDbVisualStyle
  2

 70
     1
 71
     2
 72
     1
 73
     1
 90
        2
 40
-0.6
 41
30.0
 62
     5
 63
     7
 74
     1
 91
        0
 64
     7
 65
   257
 75
     1
175
     1
 42
1.0
 92
        0
 66
   257
 43
1.0
 76
     1
 77
     6
 78
     2
 67
     7
 79
     5
170
     0
171
     0
290
     0
174
     0
 93
       13
 44
0.0
173
     0
291
     1
 45
0.0
1001
ACAD
1000
AcDbSavedByObjectVersion
1070
     0
  0
VISUALSTYLE
  5
2C
102
{ACAD_XDICTIONARY
360
14F5
102
}
102
{ACAD_REACTORS
330
29
102
}
330
29
100
AcDbVisualStyle
  2

 70
     2
 71
     2
 72
     2
 73
     1
 90
        2
 40
-0.6
 41
30.0
 62
     5
 63
     7
 74
     0
 91
        0
 64
     7
 65
   257
 75
     1
175
     1
 42
1.0
 92
        0
 66
     7
 43
1.0
 76
     1
 77
     6
 78
     2
 67
     7
 79
     5
170
     0
171
     0
290
     0
174
     0
 93
       13
 44
0.0
173
     0
291
     1
 45
0.0
1001
ACAD
1000
AcDbSavedByObjectVersion
1070
     0
  0
VISUALSTYLE
  5
2D
102
{ACAD_XDICTIONARY
360
14F7
102
}
102
{ACAD_REACTORS
330
29
102
}
330
29
100
AcDbVisualStyle
  2

 70
     3
 71
     2
 72
     2
 73
     1
 90
        2
 40
-0.6
 41
30.0
 62
     5
 63
     7
 74
     1
 91
        0
 64
     7
 65
   257
 75
     1
175
     1
 42
1.0
 92
        0
 66
   257
 43
1.0
 76
     1
 77
     6
 78
     2
 67
     7
 79
     5
170
     0
171
     0
290
     0
174
     0
 93
       13
 44
0.0
173
     0
291
     1
 45
0.0
1001
ACAD
1000
AcDbSavedByObjectVersion
1070
     0
  0
VISUALSTYLE
  5
31
102
{ACAD_XDICTIONARY
360
14FF
102
}
102
{ACAD_REACTORS
330
29
102
}
330
29
100
AcDbVisualStyle
  2

 70
     6
 71
     1
 72
     2
 73
     2
 90
        0
 40
-0.6
 41
-30.0
 62
     5
 63
     7
 74
     2
 91
        2
 64
     7
 65
   257
 75
     2
175
     1
 42
40.0
 92
        0
 66
   257
 43
1.0
 76
     1
 77
     6
 78
     2
 67
     7
 79
     3
170
     0
171
     0
290
     0
174
     0
 93
        1
 44
0.0
173
     0
291
     0
 45
0.0
1001
ACAD
1000
AcDbSavedByObjectVersion
1070
     0
  0
VISUALSTYLE
  5
3F
102
{ACAD_XDICTIONARY
360
151B
102
}
102
{ACAD_REACTORS
330
29
102
}
330
29
100
AcDbVisualStyle
  2

 70
    20
 71
     2
 72
     2
 73
     0
 90
        0
 40
-0.6
 41
-30.0
 62
     5
 63
     7
 74
     1
 91
        4
 64
     7
 65
   257
 75
     1
175
     1
 42
1.0
 92
       10
 66
     7
 43
1.0
 76
     1
 77
     6
 78
     2
 67
     7
 79
     5
170
     0
171
     0
290
     0
174
     0
 93
        1
 44
0.0
173
     0
291
     1
 45
0.0
1001
ACAD
1000
AcDbSavedByObjectVersion
1070
     0
  0
VISUALSTYLE
  5
37
102
{ACAD_XDICTIONARY
360
150B
102
}
102
{ACAD_REACTORS
330
29
102
}
330
29
100
AcDbVisualStyle
  2

 70
    14
 71
     2
 72
     2
 73
     0
 90
        0
 40
-0.6
 41
-30.0
 62
     5
 63
     7
 74
     1
 91
        4
 64
     7
 65
   257
 75
     7
175
     7
 42
1.0
 92
        8
 66
     7
 43
1.0
 76
     1
 77
     6
 78
     2
 67
     7
 79
     5
170
     0
171
     0
290
     0
174
     0
 93
        1
 44
0.0
173
     0
291
     1
 45
0.0
1001
ACAD
1000
AcDbSavedByObjectVersion
1070
     0
  0
VISUALSTYLE
  5
40
102
{ACAD_XDICTIONARY
360
151D
102
}
102
{ACAD_REACTORS
330
29
102
}
330
29
100
AcDbVisualStyle
  2

 70
    21
 71
     2
 72
     2
 73
     0
 90
        0
 40
-0.6
 41
-30.0
 62
     5
 63
     7
 74
     1
 91
        4
 64
     7
 65
   257
 75
     1
175
     1
 42
1.0
 92
        9
 66
     7
 43
1.0
 76
     1
 77
     6
 78
     2
 67
     7
 79
     5
170
     0
171
     0
290
     0
174
     0
 93
        1
 44
0.0
173
     0
291
     1
 45
0.0
1001
ACAD
1000
AcDbSavedByObjectVersion
1070
     0
  0
VISUALSTYLE
  5
33
102
{ACAD_XDICTIONARY
360
1503
102
}
102
{ACAD_REACTORS
330
29
102
}
330
29
100
AcDbVisualStyle
  2

 70
     8
 71
     2
 72
     3
 73
     0
 90
        2
 40
-0.6
 41
30.0
 62
     5
 63
     7
 74
     0
 91
        0
 64
     7
 65
   257
 75
     1
175
     1
 42
1.0
 92
        8
 66
   257
 43
1.0
 76
     1
 77
     6
 78
     2
 67
     7
 79
     3
170
     0
171
     0
290
     0
174
     0
 93
       13
 44
0.0
173
     0
291
     0
 45
0.0
1001
ACAD
1000
AcDbSavedByObjectVersion
1070
     0
  0
VISUALSTYLE
  5
3E
102
{ACAD_XDICTIONARY
360
1519
102
}
102
{ACAD_REACTORS
330
29
102
}
330
29
100
AcDbVisualStyle
  2

 70
    27
 71
     2
 72
     2
 73
     1
 90
        2
 40
-0.6
 41
30.0
 62
     5
 63
     7
 74
     0
 91
        4
 64
     7
 65
   257
 75
     1
175
     1
 42
1.0
 92
        8
 66
   257
 43
1.0
 76
     1
 77
     6
 78
     2
 67
     8
 79
     3
170
     0
171
     0
290
     0
174
     0
 93
        5
 44
0.0
173
     0
291
     0
 45
0.0
1001
ACAD
1000
AcDbSavedByObjectVersion
1070
     0
  0
VISUALSTYLE
  5
3D
102
{ACAD_XDICTIONARY
360
1517
102
}
102
{ACAD_REACTORS
330
29
102
}
330
29
100
AcDbVisualStyle
  2

 70
    26
 71
     2
 72
     2
 73
     1
 90
        2
 40
-0.6
 41
30.0
 62
     5
 63
     7
 74
     1
 91
       10
 64
     7
 65
   257
 75
     2
175
     1
 42
1.0
 92
        8
 66
   257
 43
1.0
 76
     1
 77
     6
 78
     2
 67
     7
 79
     3
170
     0
171
     0
290
     0
174
     0
 93
        5
 44
0.0
173
     0
291
     0
 45
0.0
1001
ACAD
1000
AcDbSavedByObjectVersion
1070
     0
  0
VISUALSTYLE
  5
3A
102
{ACAD_XDICTIONARY
360
1511
102
}
102
{ACAD_REACTORS
330
29
102
}
330
29
100
AcDbVisualStyle
  2

 70
    23
 71
     2
 72
     2
 73
     3
 90
        0
 40
-0.6
 41
-30.0
 62
     5
 63
     7
 74
     2
 91
        2
 64
     7
 65
     7
 75
     1
175
     1
 42
40.0
 92
        8
 66
     7
 43
1.0
 76
     1
 77
     6
 78
     2
 67
     7
 79
     3
170
     0
171
     0
290
     0
174
     0
 93
        1
 44
0.0
173
     0
291
     0
 45
0.0
1001
ACAD
1000
AcDbSavedByObjectVersion
1070
     0
  0
VISUALSTYLE
  5
3B
102
{ACAD_XDICTIONARY
360
1513
102
}
102
{ACAD_REACTORS
330
29
102
}
330
29
100
AcDbVisualStyle
  2

 70
    24
 71
     1
 72
     2
 73
     2
 90
        0
 40
-0.6
 41
-30.0
 62
     5
 63
     7
 74
     2
 91
        2
 64
     7
 65
     7
 75
     1
175
     1
 42
40.0
 92
       11
 66
     7
 43
1.0
 76
     1
 77
     6
 78
     2
 67
     7
 79
     6
170
     0
171
     0
290
     0
174
     0
 93
        1
 44
0.0
173
     0
291
     0
 45
0.0
1001
ACAD
1000
AcDbSavedByObjectVersion
1070
     0
  0
VISUALSTYLE
  5
36
102
{ACAD_XDICTIONARY
360
1509
102
}
102
{ACAD_REACTORS
330
29
102
}
330
29
100
AcDbVisualStyle
  2

 70
    13
 71
     2
 72
     2
 73
     0
 90
        0
 40
-0.6
 41
-30.0
 62
     5
 63
     7
 74
     1
 91
        4
 64
     7
 65
   257
 75
     1
175
     1
 42
1.0
 92
       12
 66
     7
 43
1.0
 76
     1
 77
     6
 78
     2
 67
     7
 79
     5
170
     0
171
     0
290
     0
174
     0
 93
        1
 44
0.0
173
     0
291
     1
 45
0.0
1001
ACAD
1000
AcDbSavedByObjectVersion
1070
     0
  0
VISUALSTYLE
  5
30
102
{ACAD_XDICTIONARY
360
14FD
102
}
102
{ACAD_REACTORS
330
29
102
}
330
29
100
AcDbVisualStyle
  2

 70
     5
 71
     0
 72
     2
 73
     0
 90
        0
 40
-0.6
 41
-30.0
 62
     5
 63
     7
 74
     1
 91
        4
 64
     7
 65
   257
 75
     1
175
     1
 42
1.0
 92
        0
 66
   257
 43
1.0
 76
     1
 77
     6
 78
     2
 67
     7
 79
     3
170
     0
171
     0
290
     0
174
     0
 93
        1
 44
0.0
173
     0
291
     0
 45
0.0
1001
ACAD
1000
AcDbSavedByObjectVersion
1070
     0
  0
VISUALSTYLE
  5
3C
102
{ACAD_XDICTIONARY
360
1515
102
}
102
{ACAD_REACTORS
330
29
102
}
330
29
100
AcDbVisualStyle
  2

 70
    25
 71
     2
 72
     2
 73
     1
 90
        1
 40
0.5
 41
-30.0
 62
     5
 63
     7
 74
     1
 91
        0
 64
     7
 65
   257
 75
     1
175
     1
 42
1.0
 92
        8
 66
     7
 43
1.0
 76
     1
 77
     6
 78
     2
 67
     7
 79
     3
170
     0
171
     0
290
     0
174
     0
 93
       13
 44
0.0
173
     0
291
     0
 45
0.0
1001
ACAD
1000
AcDbSavedByObjectVersion
1070
     0
  0
DICTIONARYVAR
  5
54B
102
{ACAD_REACTORS
330
548
102
}
330
548
100
DictionaryVariables
280
     0
  1
1:1
  0
DICTIONARYVAR
  5
54A
102
{ACAD_REACTORS
330
548
102
}
330
548
100
DictionaryVariables
280
     0
  1
STANDARD
  0
DICTIONARYVAR
  5
549
102
{ACAD_REACTORS
330
548
102
}
330
548
100
DictionaryVariables
280
     0
  1
STANDARD
  0
DICTIONARYVAR
  5
54E
102
{ACAD_REACTORS
330
548
102
}
330
548
100
DictionaryVariables
280
     0
  1
1
  0
DICTIONARYVAR
  5
54D
102
{ACAD_REACTORS
330
548
102
}
330
548
100
DictionaryVariables
280
     0
  1
0
  0
DICTIONARYVAR
  5
54C
102
{ACAD_REACTORS
330
548
102
}
330
548
100
DictionaryVariables
280
     0
  1
127
  0
DICTIONARYVAR
  5
142B
102
{ACAD_REACTORS
330
548
102
}
330
548
100
DictionaryVariables
280
     0
  1
2
  0
DICTIONARY
  5
1524
330
6E
100
AcDbDictionary
280
     1
281
     1
  3
ACAD_XREC_ROUNDTRIP
360
1525
  0
DICTIONARY
  5
1522
330
6A
100
AcDbDictionary
280
     1
281
     1
  3
ACAD_XREC_ROUNDTRIP
360
1523
  0
DICTIONARY
  5
1A
330
19
100
AcDbDictionary
280
     1
281
     1
  3
ACAD_XREC_ROUNDTRIP
360
559
  3
BUMPTILE
360
1C
  3
DIFFUSETILE
360
1B
  3
OPACITYTILE
360
1F
  3
REFLECTIONTILE
360
1E
  3
REFRACTIONTILE
360
20
  3
SPECULARTILE
360
1D
  0
DICTIONARY
  5
12
330
11
100
AcDbDictionary
280
     1
281
     1
  3
ACAD_XREC_ROUNDTRIP
360
558
  3
BUMPTILE
360
14
  3
DIFFUSETILE
360
13
  3
OPACITYTILE
360
17
  3
REFLECTIONTILE
360
16
  3
REFRACTIONTILE
360
18
  3
SPECULARTILE
360
15
  0
DICTIONARY
  5
22
330
21
100
AcDbDictionary
280
     1
281
     1
  3
ACAD_XREC_ROUNDTRIP
360
55A
  3
BUMPTILE
360
24
  3
DIFFUSETILE
360
23
  3
OPACITYTILE
360
27
  3
REFLECTIONTILE
360
26
  3
REFRACTIONTILE
360
28
  3
SPECULARTILE
360
25
  0
DICTIONARY
  5
550
330
64
100
AcDbDictionary
280
     1
281
     1
  3
ACAD_ROUNDTRIP_2008_TABLESTYLE_CELLSTYLEMAP
360
14EA
  3
ACAD_XREC_ROUNDTRIP
360
1521
  0
DICTIONARY
  5
14FB
330
2F
100
AcDbDictionary
280
     1
281
     1
  3
ACAD_XREC_ROUNDTRIP
360
14FC
  0
DICTIONARY
  5
1526
330
3EA
100
AcDbDictionary
280
     1
281
     1
  3
ACAD_XREC_ROUNDTRIP
360
1527
  0
DICTIONARY
  5
14F9
330
2E
100
AcDbDictionary
280
     1
281
     1
  3
ACAD_XREC_ROUNDTRIP
360
14FA
  0
DICTIONARY
  5
1507
330
35
100
AcDbDictionary
280
     1
281
     1
  3
ACAD_XREC_ROUNDTRIP
360
1508
  0
DICTIONARY
  5
150F
330
39
100
AcDbDictionary
280
     1
281
     1
  3
ACAD_XREC_ROUNDTRIP
360
1510
  0
DICTIONARY
  5
1501
330
32
100
AcDbDictionary
280
     1
281
     1
  3
ACAD_XREC_ROUNDTRIP
360
1502
  0
DICTIONARY
  5
1505
330
34
100
AcDbDictionary
280
     1
281
     1
  3
ACAD_XREC_ROUNDTRIP
360
1506
  0
DICTIONARY
  5
151F
330
41
100
AcDbDictionary
280
     1
281
     1
  3
ACAD_XREC_ROUNDTRIP
360
1520
  0
DICTIONARY
  5
150D
330
38
100
AcDbDictionary
280
     1
281
     1
  3
ACAD_XREC_ROUNDTRIP
360
150E
  0
DICTIONARY
  5
14F1
330
2A
100
AcDbDictionary
280
     1
281
     1
  3
ACAD_XREC_ROUNDTRIP
360
14F2
  0
DICTIONARY
  5
14F3
330
2B
100
AcDbDictionary
280
     1
281
     1
  3
ACAD_XREC_ROUNDTRIP
360
14F4
  0
DICTIONARY
  5
14F5
330
2C
100
AcDbDictionary
280
     1
281
     1
  3
ACAD_XREC_ROUNDTRIP
360
14F6
  0
DICTIONARY
  5
14F7
330
2D
100
AcDbDictionary
280
     1
281
     1
  3
ACAD_XREC_ROUNDTRIP
360
14F8
  0
DICTIONARY
  5
14FF
330
31
100
AcDbDictionary
280
     1
281
     1
  3
ACAD_XREC_ROUNDTRIP
360
1500
  0
DICTIONARY
  5
151B
330
3F
100
AcDbDictionary
280
     1
281
     1
  3
ACAD_XREC_ROUNDTRIP
360
151C
  0
DICTIONARY
  5
150B
330
37
100
AcDbDictionary
280
     1
281
     1
  3
ACAD_XREC_ROUNDTRIP
360
150C
  0
DICTIONARY
  5
151D
330
40
100
AcDbDictionary
280
     1
281
     1
  3
ACAD_XREC_ROUNDTRIP
360
151E
  0
DICTIONARY
  5
1503
330
33
100
AcDbDictionary
280
     1
281
     1
  3
ACAD_XREC_ROUNDTRIP
360
1504
  0
DICTIONARY
  5
1519
330
3E
100
AcDbDictionary
280
     1
281
     1
  3
ACAD_XREC_ROUNDTRIP
360
151A
  0
DICTIONARY
  5
1517
330
3D
100
AcDbDictionary
280
     1
281
     1
  3
ACAD_XREC_ROUNDTRIP
360
1518
  0
DICTIONARY
  5
1511
330
3A
100
AcDbDictionary
280
     1
281
     1
  3
ACAD_XREC_ROUNDTRIP
360
1512
  0
DICTIONARY
  5
1513
330
3B
100
AcDbDictionary
280
     1
281
     1
  3
ACAD_XREC_ROUNDTRIP
360
1514
  0
DICTIONARY
  5
1509
330
36
100
AcDbDictionary
280
     1
281
     1
  3
ACAD_XREC_ROUNDTRIP
360
150A
  0
DICTIONARY
  5
14FD
330
30
100
AcDbDictionary
280
     1
281
     1
  3
ACAD_XREC_ROUNDTRIP
360
14FE
  0
DICTIONARY
  5
1515
330
3C
100
AcDbDictionary
280
     1
281
     1
  3
ACAD_XREC_ROUNDTRIP
360
1516
  0
XRECORD
  5
1525
102
{ACAD_REACTORS
330
1524
102
}
330
1524
100
AcDbXrecord
280
     1
102
SHADEPLOT
 70
     0
102
SHADEPLOTRESLEVEL
 70
     2
102
SHADEPLOTCUSTOMDPI
 70
   300
  0
XRECORD
  5
1523
102
{ACAD_REACTORS
330
1522
102
}
330
1522
100
AcDbXrecord
280
     1
102
SHADEPLOT
 70
     0
102
SHADEPLOTRESLEVEL
 70
     2
102
SHADEPLOTCUSTOMDPI
 70
   300
  0
XRECORD
  5
559
102
{ACAD_REACTORS
330
1A
102
}
330
1A
100
AcDbXrecord
280
     1
102
MATERIAL
148
0.0
149
0.0
149
0.0
 93
        0
 94
      127
282
     0
 72
     0
 77
     0
171
     0
175
     0
179
     0
273
     0
  0
XRECORD
  5
1C
102
{ACAD_REACTORS
330
1A
102
}
330
1A
100
AcDbXrecord
280
     1
270
     1
271
     1
  0
XRECORD
  5
1B
102
{ACAD_REACTORS
330
1A
102
}
330
1A
100
AcDbXrecord
280
     1
270
     1
271
     1
  0
XRECORD
  5
1F
102
{ACAD_REACTORS
330
1A
102
}
330
1A
100
AcDbXrecord
280
     1
270
     1
271
     1
  0
XRECORD
  5
1E
102
{ACAD_REACTORS
330
1A
102
}
330
1A
100
AcDbXrecord
280
     1
270
     1
271
     1
  0
XRECORD
  5
20
102
{ACAD_REACTORS
330
1A
102
}
330
1A
100
AcDbXrecord
280
     1
270
     1
271
     1
  0
XRECORD
  5
1D
102
{ACAD_REACTORS
330
1A
102
}
330
1A
100
AcDbXrecord
280
     1
270
     1
271
     1
  0
XRECORD
  5
558
102
{ACAD_REACTORS
330
12
102
}
330
12
100
AcDbXrecord
280
     1
102
MATERIAL
148
0.0
149
0.0
149
0.0
 93
        0
 94
      127
282
     0
 72
     0
 77
     0
171
     0
175
     0
179
     0
273
     0
  0
XRECORD
  5
14
102
{ACAD_REACTORS
330
12
102
}
330
12
100
AcDbXrecord
280
     1
270
     1
271
     1
  0
XRECORD
  5
13
102
{ACAD_REACTORS
330
12
102
}
330
12
100
AcDbXrecord
280
     1
270
     1
271
     1
  0
XRECORD
  5
17
102
{ACAD_REACTORS
330
12
102
}
330
12
100
AcDbXrecord
280
     1
270
     1
271
     1
  0
XRECORD
  5
16
102
{ACAD_REACTORS
330
12
102
}
330
12
100
AcDbXrecord
280
     1
270
     1
271
     1
  0
XRECORD
  5
18
102
{ACAD_REACTORS
330
12
102
}
330
12
100
AcDbXrecord
280
     1
270
     1
271
     1
  0
XRECORD
  5
15
102
{ACAD_REACTORS
330
12
102
}
330
12
100
AcDbXrecord
280
     1
270
     1
271
     1
  0
XRECORD
  5
55A
102
{ACAD_REACTORS
330
22
102
}
330
22
100
AcDbXrecord
280
     1
102
MATERIAL
148
0.0
149
0.0
149
0.0
 93
        0
 94
      127
282
     0
 72
     0
 77
     0
171
     0
175
     0
179
     0
273
     0
  0
XRECORD
  5
24
102
{ACAD_REACTORS
330
22
102
}
330
22
100
AcDbXrecord
280
     1
270
     1
271
     1
  0
XRECORD
  5
23
102
{ACAD_REACTORS
330
22
102
}
330
22
100
AcDbXrecord
280
     1
270
     1
271
     1
  0
XRECORD
  5
27
102
{ACAD_REACTORS
330
22
102
}
330
22
100
AcDbXrecord
280
     1
270
     1
271
     1
  0
XRECORD
  5
26
102
{ACAD_REACTORS
330
22
102
}
330
22
100
AcDbXrecord
280
     1
270
     1
271
     1
  0
XRECORD
  5
28
102
{ACAD_REACTORS
330
22
102
}
330
22
100
AcDbXrecord
280
     1
270
     1
271
     1
  0
XRECORD
  5
25
102
{ACAD_REACTORS
330
22
102
}
330
22
100
AcDbXrecord
280
     1
270
     1
271
     1
  0
CELLSTYLEMAP
  5
14EA
102
{ACAD_REACTORS
330
550
102
}
330
550
100
AcDbCellStyleMap
 90
        3
300
CELLSTYLE
  1
TABLEFORMAT_BEGIN
 90
        5
170
     1
 91
        0
 92
    32768
 62
   257
 93
        1
300
CONTENTFORMAT
  1
CONTENTFORMAT_BEGIN
 90
        0
 91
        0
 92
      512
 93
        0
300

 40
0.0
140
1.0
 94
        5
 62
     0
340
55
144
0.25
309
CONTENTFORMAT_END
171
     1
301
MARGIN
  1
CELLMARGIN_BEGIN
 40
0.06
 40
0.06
 40
0.06
 40
0.06
 40
0.18
 40
0.18
309
CELLMARGIN_END
 94
        6
 95
        1
302
GRIDFORMAT
  1
GRIDFORMAT_BEGIN
 90
        0
 91
        1
 62
     0
 92
       -2
340
0
 93
        0
 40
0.045
309
GRIDFORMAT_END
 95
        2
302
GRIDFORMAT
  1
GRIDFORMAT_BEGIN
 90
        0
 91
        1
 62
     0
 92
       -2
340
0
 93
        0
 40
0.045
309
GRIDFORMAT_END
 95
        4
302
GRIDFORMAT
  1
GRIDFORMAT_BEGIN
 90
        0
 91
        1
 62
     0
 92
       -2
340
0
 93
        0
 40
0.045
309
GRIDFORMAT_END
 95
        8
302
GRIDFORMAT
  1
GRIDFORMAT_BEGIN
 90
        0
 91
        1
 62
     0
 92
       -2
340
0
 93
        0
 40
0.045
309
GRIDFORMAT_END
 95
       16
302
GRIDFORMAT
  1
GRIDFORMAT_BEGIN
 90
        0
 91
        1
 62
     0
 92
       -2
340
0
 93
        0
 40
0.045
309
GRIDFORMAT_END
 95
       32
302
GRIDFORMAT
  1
GRIDFORMAT_BEGIN
 90
        0
 91
        1
 62
     0
 92
       -2
340
0
 93
        0
 40
0.045
309
GRIDFORMAT_END
309
TABLEFORMAT_END
  1
CELLSTYLE_BEGIN
 90
        1
 91
        1
300
_TITLE
309
CELLSTYLE_END
300
CELLSTYLE
  1
TABLEFORMAT_BEGIN
 90
        5
170
     1
 91
        0
 92
        0
 62
   257
 93
        1
300
CONTENTFORMAT
  1
CONTENTFORMAT_BEGIN
 90
        0
 91
        0
 92
      512
 93
        0
300

 40
0.0
140
1.0
 94
        5
 62
     0
340
55
144
0.18
309
CONTENTFORMAT_END
171
     1
301
MARGIN
  1
CELLMARGIN_BEGIN
 40
0.06
 40
0.06
 40
0.06
 40
0.06
 40
0.18
 40
0.18
309
CELLMARGIN_END
 94
        6
 95
        1
302
GRIDFORMAT
  1
GRIDFORMAT_BEGIN
 90
        0
 91
        1
 62
     0
 92
       -2
340
0
 93
        0
 40
0.045
309
GRIDFORMAT_END
 95
        2
302
GRIDFORMAT
  1
GRIDFORMAT_BEGIN
 90
        0
 91
        1
 62
     0
 92
       -2
340
0
 93
        0
 40
0.045
309
GRIDFORMAT_END
 95
        4
302
GRIDFORMAT
  1
GRIDFORMAT_BEGIN
 90
        0
 91
        1
 62
     0
 92
       -2
340
0
 93
        0
 40
0.045
309
GRIDFORMAT_END
 95
        8
302
GRIDFORMAT
  1
GRIDFORMAT_BEGIN
 90
        0
 91
        1
 62
     0
 92
       -2
340
0
 93
        0
 40
0.045
309
GRIDFORMAT_END
 95
       16
302
GRIDFORMAT
  1
GRIDFORMAT_BEGIN
 90
        0
 91
        1
 62
     0
 92
       -2
340
0
 93
        0
 40
0.045
309
GRIDFORMAT_END
 95
       32
302
GRIDFORMAT
  1
GRIDFORMAT_BEGIN
 90
        0
 91
        1
 62
     0
 92
       -2
340
0
 93
        0
 40
0.045
309
GRIDFORMAT_END
309
TABLEFORMAT_END
  1
CELLSTYLE_BEGIN
 90
        2
 91
        1
300
_HEADER
309
CELLSTYLE_END
300
CELLSTYLE
  1
TABLEFORMAT_BEGIN
 90
        5
170
     1
 91
        0
 92
        0
 62
   257
 93
        1
300
CONTENTFORMAT
  1
CONTENTFORMAT_BEGIN
 90
        0
 91
        0
 92
      512
 93
        0
300

 40
0.0
140
1.0
 94
        2
 62
     0
340
55
144
0.18
309
CONTENTFORMAT_END
171
     1
301
MARGIN
  1
CELLMARGIN_BEGIN
 40
0.06
 40
0.06
 40
0.06
 40
0.06
 40
0.18
 40
0.18
309
CELLMARGIN_END
 94
        6
 95
        1
302
GRIDFORMAT
  1
GRIDFORMAT_BEGIN
 90
        0
 91
        1
 62
     0
 92
       -2
340
0
 93
        0
 40
0.045
309
GRIDFORMAT_END
 95
        2
302
GRIDFORMAT
  1
GRIDFORMAT_BEGIN
 90
        0
 91
        1
 62
     0
 92
       -2
340
0
 93
        0
 40
0.045
309
GRIDFORMAT_END
 95
        4
302
GRIDFORMAT
  1
GRIDFORMAT_BEGIN
 90
        0
 91
        1
 62
     0
 92
       -2
340
0
 93
        0
 40
0.045
309
GRIDFORMAT_END
 95
        8
302
GRIDFORMAT
  1
GRIDFORMAT_BEGIN
 90
        0
 91
        1
 62
     0
 92
       -2
340
0
 93
        0
 40
0.045
309
GRIDFORMAT_END
 95
       16
302
GRIDFORMAT
  1
GRIDFORMAT_BEGIN
 90
        0
 91
        1
 62
     0
 92
       -2
340
0
 93
        0
 40
0.045
309
GRIDFORMAT_END
 95
       32
302
GRIDFORMAT
  1
GRIDFORMAT_BEGIN
 90
        0
 91
        1
 62
     0
 92
       -2
340
0
 93
        0
 40
0.045
309
GRIDFORMAT_END
309
TABLEFORMAT_END
  1
CELLSTYLE_BEGIN
 90
        3
 91
        2
300
_DATA
309
CELLSTYLE_END
  0
XRECORD
  5
1521
102
{ACAD_REACTORS
330
550
102
}
330
550
100
AcDbXrecord
280
     1
102
ACAD_ROUNDTRIP_PRE2007_TABLESTYLE
 90
      512
 91
        0
  1

 92
      512
 93
        0
  2

 94
      512
 95
        0
  3

  0
XRECORD
  5
14FC
102
{ACAD_REACTORS
330
14FB
102
}
330
14FB
100
AcDbXrecord
280
     1
102
RTVSPropertyOp0
 70
     1
102
RTVSPropertyOp1
 70
     1
102
RTVSPropertyOp2
 70
     1
102
RTVSPropertyOp3
 70
     1
102
RTVSPropertyOp4
 70
     1
102
RTVSPropertyOp5
 70
     1
102
RTVSPropertyOp6
 70
     1
102
RTVSPropertyOp7
 70
     1
102
RTVSPropertyOp8
 70
     1
102
RTVSPropertyOp9
 70
     1
102
RTVSPropertyOp10
 70
     1
102
RTVSPropertyOp11
 70
     1
102
RTVSPropertyOp12
 70
     1
102
RTVSPropertyOp13
 70
     1
102
RTVSPropertyOp14
 70
     1
102
RTVSPropertyOp15
 70
     1
102
RTVSPropertyOp16
 70
     1
102
RTVSPropertyOp17
 70
     1
102
RTVSPropertyOp18
 70
     1
102
RTVSPropertyOp19
 70
     1
102
RTVSPropertyOp20
 70
     1
102
RTVSPropertyOp21
 70
     1
102
RTVSPropertyOp22
 70
     1
102
RTVSPropertyOp23
 70
     1
102
RTVSPropertyOp24
 70
     1
102
RTVSPropertyOp25
 70
     1
102
RTVSPropertyOp26
 70
     1
102
RTVSPropertyOp27
 70
     1
102
RTVSPropertyOp28
 70
     1
102
RTVSPropertyOp29
 70
     1
102
RTVSPropertyOp30
 70
     1
102
RTVSPropertyOp31
 70
     1
102
RTVSPropertyOp32
 70
     1
  0
XRECORD
  5
1527
102
{ACAD_REACTORS
330
1526
102
}
330
1526
100
AcDbXrecord
280
     1
102
RTVSPropertyOp0
 70
     1
102
RTVSPropertyOp1
 70
     1
102
RTVSPropertyOp2
 70
     1
102
RTVSPropertyOp3
 70
     1
102
RTVSPropertyOp4
 70
     1
102
RTVSPropertyOp5
 70
     1
102
RTVSPropertyOp6
 70
     1
102
RTVSPropertyOp7
 70
     1
102
RTVSPropertyOp8
 70
     1
102
RTVSPropertyOp9
 70
     1
102
RTVSPropertyOp10
 70
     1
102
RTVSPropertyOp11
 70
     1
102
RTVSPropertyOp12
 70
     1
102
RTVSPropertyOp13
 70
     1
102
RTVSPropertyOp14
 70
     1
102
RTVSPropertyOp15
 70
     1
102
RTVSPropertyOp16
 70
     1
102
RTVSPropertyOp17
 70
     1
102
RTVSPropertyOp18
 70
     1
102
RTVSPropertyOp19
 70
     1
102
RTVSPropertyOp20
 70
     1
102
RTVSPropertyOp21
 70
     1
102
RTVSPropertyOp22
 70
     1
102
RTVSPropertyOp23
 70
     1
102
RTVSPropertyOp24
 70
     1
102
RTVSPropertyOp25
 70
     1
102
RTVSPropertyOp26
 70
     1
102
RTVSPropertyOp27
 70
     1
102
RTVSPropertyOp28
 70
     1
102
RTVSPropertyOp29
 70
     1
102
RTVSPropertyOp30
 70
     1
102
RTVSPropertyOp31
 70
     1
102
RTVSPropertyOp32
 70
     1
  0
XRECORD
  5
14FA
102
{ACAD_REACTORS
330
14F9
102
}
330
14F9
100
AcDbXrecord
280
     1
102
RTVSPropertyOp0
 70
     1
102
RTVSPropertyOp1
 70
     1
102
RTVSPropertyOp2
 70
     1
102
RTVSPropertyOp3
 70
     1
102
RTVSPropertyOp4
 70
     1
102
RTVSPropertyOp5
 70
     1
102
RTVSPropertyOp6
 70
     1
102
RTVSPropertyOp7
 70
     1
102
RTVSPropertyOp8
 70
     1
102
RTVSPropertyOp9
 70
     1
102
RTVSPropertyOp10
 70
     1
102
RTVSPropertyOp11
 70
     1
102
RTVSPropertyOp12
 70
     1
102
RTVSPropertyOp13
 70
     1
102
RTVSPropertyOp14
 70
     1
102
RTVSPropertyOp15
 70
     1
102
RTVSPropertyOp16
 70
     1
102
RTVSPropertyOp17
 70
     1
102
RTVSPropertyOp18
 70
     1
102
RTVSPropertyOp19
 70
     1
102
RTVSPropertyOp20
 70
     1
102
RTVSPropertyOp21
 70
     1
102
RTVSPropertyOp22
 70
     1
102
RTVSPropertyOp23
 70
     1
102
RTVSPropertyOp24
 70
     1
102
RTVSPropertyOp25
 70
     1
102
RTVSPropertyOp26
 70
     1
102
RTVSPropertyOp27
 70
     1
102
RTVSPropertyOp28
 70
     1
102
RTVSPropertyOp29
 70
     1
102
RTVSPropertyOp30
 70
     1
102
RTVSPropertyOp31
 70
     1
102
RTVSPropertyOp32
 70
     1
  0
XRECORD
  5
1508
102
{ACAD_REACTORS
330
1507
102
}
330
1507
100
AcDbXrecord
280
     1
102
RTVSPropertyOp0
 70
     1
102
RTVSPropertyOp1
 70
     1
102
RTVSPropertyOp2
 70
     1
102
RTVSPropertyOp3
 70
     1
102
RTVSPropertyOp4
 70
     1
102
RTVSPropertyOp5
 70
     1
102
RTVSPropertyOp6
 70
     1
102
RTVSPropertyOp7
 70
     1
102
RTVSPropertyOp8
 70
     1
102
RTVSPropertyOp9
 70
     1
102
RTVSPropertyOp10
 70
     1
102
RTVSPropertyOp11
 70
     1
102
RTVSPropertyOp12
 70
     1
102
RTVSPropertyOp13
 70
     1
102
RTVSPropertyOp14
 70
     1
102
RTVSPropertyOp15
 70
     1
102
RTVSPropertyOp16
 70
     1
102
RTVSPropertyOp17
 70
     1
102
RTVSPropertyOp18
 70
     1
102
RTVSPropertyOp19
 70
     1
102
RTVSPropertyOp20
 70
     1
102
RTVSPropertyOp21
 70
     1
102
RTVSPropertyOp22
 70
     1
102
RTVSPropertyOp23
 70
     1
102
RTVSPropertyOp24
 70
     1
102
RTVSPropertyOp25
 70
     1
102
RTVSPropertyOp26
 70
     1
102
RTVSPropertyOp27
 70
     1
102
RTVSPropertyOp28
 70
     1
102
RTVSPropertyOp29
 70
     1
102
RTVSPropertyOp30
 70
     1
102
RTVSPropertyOp31
 70
     1
102
RTVSPropertyOp32
 70
     1
  0
XRECORD
  5
1510
102
{ACAD_REACTORS
330
150F
102
}
330
150F
100
AcDbXrecord
280
     1
102
RTVSPropertyOp0
 70
     1
102
RTVSPropertyOp1
 70
     1
102
RTVSPropertyOp2
 70
     1
102
RTVSPropertyOp3
 70
     1
102
RTVSPropertyOp4
 70
     1
102
RTVSPropertyOp5
 70
     1
102
RTVSPropertyOp6
 70
     1
102
RTVSPropertyOp7
 70
     1
102
RTVSPropertyOp8
 70
     1
102
RTVSPropertyOp9
 70
     1
102
RTVSPropertyOp10
 70
     1
102
RTVSPropertyOp11
 70
     1
102
RTVSPropertyOp12
 70
     1
102
RTVSPropertyOp13
 70
     1
102
RTVSPropertyOp14
 70
     1
102
RTVSPropertyOp15
 70
     1
102
RTVSPropertyOp16
 70
     1
102
RTVSPropertyOp17
 70
     1
102
RTVSPropertyOp18
 70
     1
102
RTVSPropertyOp19
 70
     1
102
RTVSPropertyOp20
 70
     1
102
RTVSPropertyOp21
 70
     1
102
RTVSPropertyOp22
 70
     1
102
RTVSPropertyOp23
 70
     1
102
RTVSPropertyOp24
 70
     1
102
RTVSPropertyOp25
 70
     1
102
RTVSPropertyOp26
 70
     1
102
RTVSPropertyOp27
 70
     1
102
RTVSPropertyOp28
 70
     1
102
RTVSPropertyOp29
 70
     1
102
RTVSPropertyOp30
 70
     1
102
RTVSPropertyOp31
 70
     1
102
RTVSPropertyOp32
 70
     1
  0
XRECORD
  5
1502
102
{ACAD_REACTORS
330
1501
102
}
330
1501
100
AcDbXrecord
280
     1
102
RTVSPropertyOp0
 70
     1
102
RTVSPropertyOp1
 70
     1
102
RTVSPropertyOp2
 70
     1
102
RTVSPropertyOp3
 70
     1
102
RTVSPropertyOp4
 70
     1
102
RTVSPropertyOp5
 70
     1
102
RTVSPropertyOp6
 70
     1
102
RTVSPropertyOp7
 70
     1
102
RTVSPropertyOp8
 70
     1
102
RTVSPropertyOp9
 70
     1
102
RTVSPropertyOp10
 70
     1
102
RTVSPropertyOp11
 70
     1
102
RTVSPropertyOp12
 70
     1
102
RTVSPropertyOp13
 70
     1
102
RTVSPropertyOp14
 70
     1
102
RTVSPropertyOp15
 70
     1
102
RTVSPropertyOp16
 70
     1
102
RTVSPropertyOp17
 70
     1
102
RTVSPropertyOp18
 70
     1
102
RTVSPropertyOp19
 70
     1
102
RTVSPropertyOp20
 70
     1
102
RTVSPropertyOp21
 70
     1
102
RTVSPropertyOp22
 70
     1
102
RTVSPropertyOp23
 70
     1
102
RTVSPropertyOp24
 70
     1
102
RTVSPropertyOp25
 70
     1
102
RTVSPropertyOp26
 70
     1
102
RTVSPropertyOp27
 70
     1
102
RTVSPropertyOp28
 70
     1
102
RTVSPropertyOp29
 70
     1
102
RTVSPropertyOp30
 70
     1
102
RTVSPropertyOp31
 70
     1
102
RTVSPropertyOp32
 70
     1
  0
XRECORD
  5
1506
102
{ACAD_REACTORS
330
1505
102
}
330
1505
100
AcDbXrecord
280
     1
102
RTVSPropertyOp0
 70
     1
102
RTVSPropertyOp1
 70
     1
102
RTVSPropertyOp2
 70
     1
102
RTVSPropertyOp3
 70
     1
102
RTVSPropertyOp4
 70
     1
102
RTVSPropertyOp5
 70
     1
102
RTVSPropertyOp6
 70
     1
102
RTVSPropertyOp7
 70
     1
102
RTVSPropertyOp8
 70
     1
102
RTVSPropertyOp9
 70
     1
102
RTVSPropertyOp10
 70
     1
102
RTVSPropertyOp11
 70
     1
102
RTVSPropertyOp12
 70
     1
102
RTVSPropertyOp13
 70
     1
102
RTVSPropertyOp14
 70
     1
102
RTVSPropertyOp15
 70
     1
102
RTVSPropertyOp16
 70
     1
102
RTVSPropertyOp17
 70
     1
102
RTVSPropertyOp18
 70
     1
102
RTVSPropertyOp19
 70
     1
102
RTVSPropertyOp20
 70
     1
102
RTVSPropertyOp21
 70
     1
102
RTVSPropertyOp22
 70
     1
102
RTVSPropertyOp23
 70
     1
102
RTVSPropertyOp24
 70
     1
102
RTVSPropertyOp25
 70
     1
102
RTVSPropertyOp26
 70
     1
102
RTVSPropertyOp27
 70
     1
102
RTVSPropertyOp28
 70
     1
102
RTVSPropertyOp29
 70
     1
102
RTVSPropertyOp30
 70
     1
102
RTVSPropertyOp31
 70
     1
102
RTVSPropertyOp32
 70
     1
  0
XRECORD
  5
1520
102
{ACAD_REACTORS
330
151F
102
}
330
151F
100
AcDbXrecord
280
     1
102
RTVSPropertyOp0
 70
     0
102
RTVSPropertyOp1
 70
     0
102
RTVSPropertyOp2
 70
     0
102
RTVSPropertyOp3
 70
     0
102
RTVSPropertyOp4
 70
     0
102
RTVSPropertyOp5
 70
     0
102
RTVSPropertyOp6
 70
     0
102
RTVSPropertyOp7
 70
     0
102
RTVSPropertyOp8
 70
     0
102
RTVSPropertyOp9
 70
     0
102
RTVSPropertyOp10
 70
     0
102
RTVSPropertyOp11
 70
     0
102
RTVSPropertyOp12
 70
     0
102
RTVSPropertyOp13
 70
     0
102
RTVSPropertyOp14
 70
     2
102
RTVSPropertyOp15
 70
     0
102
RTVSPropertyOp16
 70
     0
102
RTVSPropertyOp17
 70
     0
102
RTVSPropertyOp18
 70
     0
102
RTVSPropertyOp19
 70
     0
102
RTVSPropertyOp20
 70
     0
102
RTVSPropertyOp21
 70
     0
102
RTVSPropertyOp22
 70
     0
102
RTVSPropertyOp23
 70
     0
102
RTVSPropertyOp24
 70
     0
102
RTVSPropertyOp25
 70
     0
102
RTVSPropertyOp26
 70
     0
102
RTVSPropertyOp27
 70
     0
102
RTVSPropertyOp28
 70
     0
102
RTVSPropertyOp29
 70
     0
102
RTVSPropertyOp30
 70
     0
102
RTVSPropertyOp31
 70
     0
102
RTVSPropertyOp32
 70
     0
  0
XRECORD
  5
150E
102
{ACAD_REACTORS
330
150D
102
}
330
150D
100
AcDbXrecord
280
     1
102
RTVSPropertyOp0
 70
     1
102
RTVSPropertyOp1
 70
     1
102
RTVSPropertyOp2
 70
     1
102
RTVSPropertyOp3
 70
     1
102
RTVSPropertyOp4
 70
     1
102
RTVSPropertyOp5
 70
     1
102
RTVSPropertyOp6
 70
     1
102
RTVSPropertyOp7
 70
     1
102
RTVSPropertyOp8
 70
     1
102
RTVSPropertyOp9
 70
     1
102
RTVSPropertyOp10
 70
     1
102
RTVSPropertyOp11
 70
     1
102
RTVSPropertyOp12
 70
     1
102
RTVSPropertyOp13
 70
     1
102
RTVSPropertyOp14
 70
     1
102
RTVSPropertyOp15
 70
     1
102
RTVSPropertyOp16
 70
     1
102
RTVSPropertyOp17
 70
     1
102
RTVSPropertyOp18
 70
     1
102
RTVSPropertyOp19
 70
     1
102
RTVSPropertyOp20
 70
     1
102
RTVSPropertyOp21
 70
     1
102
RTVSPropertyOp22
 70
     1
102
RTVSPropertyOp23
 70
     1
102
RTVSPropertyOp24
 70
     1
102
RTVSPropertyOp25
 70
     1
102
RTVSPropertyOp26
 70
     1
102
RTVSPropertyOp27
 70
     1
102
RTVSPropertyOp28
 70
     1
102
RTVSPropertyOp29
 70
     1
102
RTVSPropertyOp30
 70
     1
102
RTVSPropertyOp31
 70
     1
102
RTVSPropertyOp32
 70
     1
  0
XRECORD
  5
14F2
102
{ACAD_REACTORS
330
14F1
102
}
330
14F1
100
AcDbXrecord
280
     1
102
RTVSPropertyOp0
 70
     1
102
RTVSPropertyOp1
 70
     1
102
RTVSPropertyOp2
 70
     1
102
RTVSPropertyOp3
 70
     1
102
RTVSPropertyOp4
 70
     1
102
RTVSPropertyOp5
 70
     1
102
RTVSPropertyOp6
 70
     1
102
RTVSPropertyOp7
 70
     1
102
RTVSPropertyOp8
 70
     1
102
RTVSPropertyOp9
 70
     1
102
RTVSPropertyOp10
 70
     1
102
RTVSPropertyOp11
 70
     1
102
RTVSPropertyOp12
 70
     1
102
RTVSPropertyOp13
 70
     1
102
RTVSPropertyOp14
 70
     1
102
RTVSPropertyOp15
 70
     1
102
RTVSPropertyOp16
 70
     1
102
RTVSPropertyOp17
 70
     1
102
RTVSPropertyOp18
 70
     1
102
RTVSPropertyOp19
 70
     1
102
RTVSPropertyOp20
 70
     1
102
RTVSPropertyOp21
 70
     1
102
RTVSPropertyOp22
 70
     1
102
RTVSPropertyOp23
 70
     1
102
RTVSPropertyOp24
 70
     1
102
RTVSPropertyOp25
 70
     1
102
RTVSPropertyOp26
 70
     1
102
RTVSPropertyOp27
 70
     1
102
RTVSPropertyOp28
 70
     1
102
RTVSPropertyOp29
 70
     1
102
RTVSPropertyOp30
 70
     1
102
RTVSPropertyOp31
 70
     1
102
RTVSPropertyOp32
 70
     1
  0
XRECORD
  5
14F4
102
{ACAD_REACTORS
330
14F3
102
}
330
14F3
100
AcDbXrecord
280
     1
102
RTVSPropertyOp0
 70
     1
102
RTVSPropertyOp1
 70
     1
102
RTVSPropertyOp2
 70
     1
102
RTVSPropertyOp3
 70
     1
102
RTVSPropertyOp4
 70
     1
102
RTVSPropertyOp5
 70
     1
102
RTVSPropertyOp6
 70
     1
102
RTVSPropertyOp7
 70
     1
102
RTVSPropertyOp8
 70
     1
102
RTVSPropertyOp9
 70
     1
102
RTVSPropertyOp10
 70
     1
102
RTVSPropertyOp11
 70
     1
102
RTVSPropertyOp12
 70
     1
102
RTVSPropertyOp13
 70
     1
102
RTVSPropertyOp14
 70
     1
102
RTVSPropertyOp15
 70
     1
102
RTVSPropertyOp16
 70
     1
102
RTVSPropertyOp17
 70
     1
102
RTVSPropertyOp18
 70
     1
102
RTVSPropertyOp19
 70
     1
102
RTVSPropertyOp20
 70
     1
102
RTVSPropertyOp21
 70
     1
102
RTVSPropertyOp22
 70
     1
102
RTVSPropertyOp23
 70
     1
102
RTVSPropertyOp24
 70
     1
102
RTVSPropertyOp25
 70
     1
102
RTVSPropertyOp26
 70
     1
102
RTVSPropertyOp27
 70
     1
102
RTVSPropertyOp28
 70
     1
102
RTVSPropertyOp29
 70
     1
102
RTVSPropertyOp30
 70
     1
102
RTVSPropertyOp31
 70
     1
102
RTVSPropertyOp32
 70
     1
  0
XRECORD
  5
14F6
102
{ACAD_REACTORS
330
14F5
102
}
330
14F5
100
AcDbXrecord
280
     1
102
RTVSPropertyOp0
 70
     1
102
RTVSPropertyOp1
 70
     1
102
RTVSPropertyOp2
 70
     1
102
RTVSPropertyOp3
 70
     1
102
RTVSPropertyOp4
 70
     1
102
RTVSPropertyOp5
 70
     1
102
RTVSPropertyOp6
 70
     1
102
RTVSPropertyOp7
 70
     1
102
RTVSPropertyOp8
 70
     1
102
RTVSPropertyOp9
 70
     1
102
RTVSPropertyOp10
 70
     1
102
RTVSPropertyOp11
 70
     1
102
RTVSPropertyOp12
 70
     1
102
RTVSPropertyOp13
 70
     1
102
RTVSPropertyOp14
 70
     1
102
RTVSPropertyOp15
 70
     1
102
RTVSPropertyOp16
 70
     1
102
RTVSPropertyOp17
 70
     1
102
RTVSPropertyOp18
 70
     1
102
RTVSPropertyOp19
 70
     1
102
RTVSPropertyOp20
 70
     1
102
RTVSPropertyOp21
 70
     1
102
RTVSPropertyOp22
 70
     1
102
RTVSPropertyOp23
 70
     1
102
RTVSPropertyOp24
 70
     1
102
RTVSPropertyOp25
 70
     1
102
RTVSPropertyOp26
 70
     1
102
RTVSPropertyOp27
 70
     1
102
RTVSPropertyOp28
 70
     1
102
RTVSPropertyOp29
 70
     1
102
RTVSPropertyOp30
 70
     1
102
RTVSPropertyOp31
 70
     1
102
RTVSPropertyOp32
 70
     1
  0
XRECORD
  5
14F8
102
{ACAD_REACTORS
330
14F7
102
}
330
14F7
100
AcDbXrecord
280
     1
102
RTVSPropertyOp0
 70
     1
102
RTVSPropertyOp1
 70
     1
102
RTVSPropertyOp2
 70
     1
102
RTVSPropertyOp3
 70
     1
102
RTVSPropertyOp4
 70
     1
102
RTVSPropertyOp5
 70
     1
102
RTVSPropertyOp6
 70
     1
102
RTVSPropertyOp7
 70
     1
102
RTVSPropertyOp8
 70
     1
102
RTVSPropertyOp9
 70
     1
102
RTVSPropertyOp10
 70
     1
102
RTVSPropertyOp11
 70
     1
102
RTVSPropertyOp12
 70
     1
102
RTVSPropertyOp13
 70
     1
102
RTVSPropertyOp14
 70
     1
102
RTVSPropertyOp15
 70
     1
102
RTVSPropertyOp16
 70
     1
102
RTVSPropertyOp17
 70
     1
102
RTVSPropertyOp18
 70
     1
102
RTVSPropertyOp19
 70
     1
102
RTVSPropertyOp20
 70
     1
102
RTVSPropertyOp21
 70
     1
102
RTVSPropertyOp22
 70
     1
102
RTVSPropertyOp23
 70
     1
102
RTVSPropertyOp24
 70
     1
102
RTVSPropertyOp25
 70
     1
102
RTVSPropertyOp26
 70
     1
102
RTVSPropertyOp27
 70
     1
102
RTVSPropertyOp28
 70
     1
102
RTVSPropertyOp29
 70
     1
102
RTVSPropertyOp30
 70
     1
102
RTVSPropertyOp31
 70
     1
102
RTVSPropertyOp32
 70
     1
  0
XRECORD
  5
1500
102
{ACAD_REACTORS
330
14FF
102
}
330
14FF
100
AcDbXrecord
280
     1
102
RTVSPropertyOp0
 70
     1
102
RTVSPropertyOp1
 70
     1
102
RTVSPropertyOp2
 70
     1
102
RTVSPropertyOp3
 70
     1
102
RTVSPropertyOp4
 70
     1
102
RTVSPropertyOp5
 70
     1
102
RTVSPropertyOp6
 70
     1
102
RTVSPropertyOp7
 70
     1
102
RTVSPropertyOp8
 70
     1
102
RTVSPropertyOp9
 70
     1
102
RTVSPropertyOp10
 70
     1
102
RTVSPropertyOp11
 70
     1
102
RTVSPropertyOp12
 70
     1
102
RTVSPropertyOp13
 70
     1
102
RTVSPropertyOp14
 70
     1
102
RTVSPropertyOp15
 70
     1
102
RTVSPropertyOp16
 70
     1
102
RTVSPropertyOp17
 70
     1
102
RTVSPropertyOp18
 70
     1
102
RTVSPropertyOp19
 70
     1
102
RTVSPropertyOp20
 70
     1
102
RTVSPropertyOp21
 70
     1
102
RTVSPropertyOp22
 70
     1
102
RTVSPropertyOp23
 70
     1
102
RTVSPropertyOp24
 70
     1
102
RTVSPropertyOp25
 70
     1
102
RTVSPropertyOp26
 70
     1
102
RTVSPropertyOp27
 70
     1
102
RTVSPropertyOp28
 70
     1
102
RTVSPropertyOp29
 70
     1
102
RTVSPropertyOp30
 70
     1
102
RTVSPropertyOp31
 70
     1
102
RTVSPropertyOp32
 70
     1
  0
XRECORD
  5
151C
102
{ACAD_REACTORS
330
151B
102
}
330
151B
100
AcDbXrecord
280
     1
102
RTVSPropertyOp0
 70
     0
102
RTVSPropertyOp1
 70
     0
102
RTVSPropertyOp2
 70
     0
102
RTVSPropertyOp3
 70
     0
102
RTVSPropertyOp4
 70
     0
102
RTVSPropertyOp5
 70
     0
102
RTVSPropertyOp6
 70
     0
102
RTVSPropertyOp7
 70
     0
102
RTVSPropertyOp8
 70
     0
102
RTVSPropertyOp9
 70
     0
102
RTVSPropertyOp10
 70
     0
102
RTVSPropertyOp11
 70
     0
102
RTVSPropertyOp12
 70
     0
102
RTVSPropertyOp13
 70
     0
102
RTVSPropertyOp14
 70
     2
102
RTVSPropertyOp15
 70
     0
102
RTVSPropertyOp16
 70
     0
102
RTVSPropertyOp17
 70
     0
102
RTVSPropertyOp18
 70
     0
102
RTVSPropertyOp19
 70
     0
102
RTVSPropertyOp20
 70
     0
102
RTVSPropertyOp21
 70
     0
102
RTVSPropertyOp22
 70
     0
102
RTVSPropertyOp23
 70
     0
102
RTVSPropertyOp24
 70
     0
102
RTVSPropertyOp25
 70
     0
102
RTVSPropertyOp26
 70
     0
102
RTVSPropertyOp27
 70
     0
102
RTVSPropertyOp28
 70
     0
102
RTVSPropertyOp29
 70
     0
102
RTVSPropertyOp30
 70
     0
102
RTVSPropertyOp31
 70
     0
102
RTVSPropertyOp32
 70
     0
  0
XRECORD
  5
150C
102
{ACAD_REACTORS
330
150B
102
}
330
150B
100
AcDbXrecord
280
     1
102
RTVSPropertyOp0
 70
     1
102
RTVSPropertyOp1
 70
     1
102
RTVSPropertyOp2
 70
     1
102
RTVSPropertyOp3
 70
     1
102
RTVSPropertyOp4
 70
     1
102
RTVSPropertyOp5
 70
     1
102
RTVSPropertyOp6
 70
     1
102
RTVSPropertyOp7
 70
     1
102
RTVSPropertyOp8
 70
     1
102
RTVSPropertyOp9
 70
     1
102
RTVSPropertyOp10
 70
     1
102
RTVSPropertyOp11
 70
     1
102
RTVSPropertyOp12
 70
     1
102
RTVSPropertyOp13
 70
     1
102
RTVSPropertyOp14
 70
     1
102
RTVSPropertyOp15
 70
     1
102
RTVSPropertyOp16
 70
     1
102
RTVSPropertyOp17
 70
     1
102
RTVSPropertyOp18
 70
     1
102
RTVSPropertyOp19
 70
     1
102
RTVSPropertyOp20
 70
     1
102
RTVSPropertyOp21
 70
     1
102
RTVSPropertyOp22
 70
     1
102
RTVSPropertyOp23
 70
     1
102
RTVSPropertyOp24
 70
     1
102
RTVSPropertyOp25
 70
     1
102
RTVSPropertyOp26
 70
     1
102
RTVSPropertyOp27
 70
     1
102
RTVSPropertyOp28
 70
     1
102
RTVSPropertyOp29
 70
     1
102
RTVSPropertyOp30
 70
     1
102
RTVSPropertyOp31
 70
     1
102
RTVSPropertyOp32
 70
     1
  0
XRECORD
  5
151E
102
{ACAD_REACTORS
330
151D
102
}
330
151D
100
AcDbXrecord
280
     1
102
RTVSPropertyOp0
 70
     0
102
RTVSPropertyOp1
 70
     0
102
RTVSPropertyOp2
 70
     0
102
RTVSPropertyOp3
 70
     0
102
RTVSPropertyOp4
 70
     0
102
RTVSPropertyOp5
 70
     0
102
RTVSPropertyOp6
 70
     0
102
RTVSPropertyOp7
 70
     0
102
RTVSPropertyOp8
 70
     0
102
RTVSPropertyOp9
 70
     0
102
RTVSPropertyOp10
 70
     0
102
RTVSPropertyOp11
 70
     0
102
RTVSPropertyOp12
 70
     0
102
RTVSPropertyOp13
 70
     0
102
RTVSPropertyOp14
 70
     2
102
RTVSPropertyOp15
 70
     0
102
RTVSPropertyOp16
 70
     0
102
RTVSPropertyOp17
 70
     0
102
RTVSPropertyOp18
 70
     0
102
RTVSPropertyOp19
 70
     0
102
RTVSPropertyOp20
 70
     0
102
RTVSPropertyOp21
 70
     0
102
RTVSPropertyOp22
 70
     0
102
RTVSPropertyOp23
 70
     0
102
RTVSPropertyOp24
 70
     0
102
RTVSPropertyOp25
 70
     0
102
RTVSPropertyOp26
 70
     0
102
RTVSPropertyOp27
 70
     0
102
RTVSPropertyOp28
 70
     0
102
RTVSPropertyOp29
 70
     0
102
RTVSPropertyOp30
 70
     0
102
RTVSPropertyOp31
 70
     0
102
RTVSPropertyOp32
 70
     0
  0
XRECORD
  5
1504
102
{ACAD_REACTORS
330
1503
102
}
330
1503
100
AcDbXrecord
280
     1
102
RTVSPropertyOp0
 70
     1
102
RTVSPropertyOp1
 70
     1
102
RTVSPropertyOp2
 70
     1
102
RTVSPropertyOp3
 70
     1
102
RTVSPropertyOp4
 70
     1
102
RTVSPropertyOp5
 70
     1
102
RTVSPropertyOp6
 70
     1
102
RTVSPropertyOp7
 70
     1
102
RTVSPropertyOp8
 70
     1
102
RTVSPropertyOp9
 70
     1
102
RTVSPropertyOp10
 70
     1
102
RTVSPropertyOp11
 70
     1
102
RTVSPropertyOp12
 70
     1
102
RTVSPropertyOp13
 70
     1
102
RTVSPropertyOp14
 70
     1
102
RTVSPropertyOp15
 70
     1
102
RTVSPropertyOp16
 70
     1
102
RTVSPropertyOp17
 70
     1
102
RTVSPropertyOp18
 70
     1
102
RTVSPropertyOp19
 70
     1
102
RTVSPropertyOp20
 70
     1
102
RTVSPropertyOp21
 70
     1
102
RTVSPropertyOp22
 70
     1
102
RTVSPropertyOp23
 70
     1
102
RTVSPropertyOp24
 70
     1
102
RTVSPropertyOp25
 70
     1
102
RTVSPropertyOp26
 70
     1
102
RTVSPropertyOp27
 70
     1
102
RTVSPropertyOp28
 70
     1
102
RTVSPropertyOp29
 70
     1
102
RTVSPropertyOp30
 70
     1
102
RTVSPropertyOp31
 70
     1
102
RTVSPropertyOp32
 70
     1
  0
XRECORD
  5
151A
102
{ACAD_REACTORS
330
1519
102
}
330
1519
100
AcDbXrecord
280
     1
102
RTVSPropertyOp0
 70
     1
102
RTVSPropertyOp1
 70
     1
102
RTVSPropertyOp2
 70
     1
102
RTVSPropertyOp3
 70
     1
102
RTVSPropertyOp4
 70
     1
102
RTVSPropertyOp5
 70
     1
102
RTVSPropertyOp6
 70
     1
102
RTVSPropertyOp7
 70
     1
102
RTVSPropertyOp8
 70
     1
102
RTVSPropertyOp9
 70
     1
102
RTVSPropertyOp10
 70
     1
102
RTVSPropertyOp11
 70
     1
102
RTVSPropertyOp12
 70
     1
102
RTVSPropertyOp13
 70
     1
102
RTVSPropertyOp14
 70
     1
102
RTVSPropertyOp15
 70
     1
102
RTVSPropertyOp16
 70
     1
102
RTVSPropertyOp17
 70
     1
102
RTVSPropertyOp18
 70
     1
102
RTVSPropertyOp19
 70
     1
102
RTVSPropertyOp20
 70
     1
102
RTVSPropertyOp21
 70
     1
102
RTVSPropertyOp22
 70
     1
102
RTVSPropertyOp23
 70
     1
102
RTVSPropertyOp24
 70
     1
102
RTVSPropertyOp25
 70
     1
102
RTVSPropertyOp26
 70
     1
102
RTVSPropertyOp27
 70
     1
102
RTVSPropertyOp28
 70
     1
102
RTVSPropertyOp29
 70
     1
102
RTVSPropertyOp30
 70
     1
102
RTVSPropertyOp31
 70
     1
102
RTVSPropertyOp32
 70
     1
  0
XRECORD
  5
1518
102
{ACAD_REACTORS
330
1517
102
}
330
1517
100
AcDbXrecord
280
     1
102
RTVSPropertyOp0
 70
     1
102
RTVSPropertyOp1
 70
     1
102
RTVSPropertyOp2
 70
     1
102
RTVSPropertyOp3
 70
     1
102
RTVSPropertyOp4
 70
     1
102
RTVSPropertyOp5
 70
     1
102
RTVSPropertyOp6
 70
     1
102
RTVSPropertyOp7
 70
     1
102
RTVSPropertyOp8
 70
     1
102
RTVSPropertyOp9
 70
     1
102
RTVSPropertyOp10
 70
     1
102
RTVSPropertyOp11
 70
     1
102
RTVSPropertyOp12
 70
     1
102
RTVSPropertyOp13
 70
     1
102
RTVSPropertyOp14
 70
     1
102
RTVSPropertyOp15
 70
     1
102
RTVSPropertyOp16
 70
     1
102
RTVSPropertyOp17
 70
     1
102
RTVSPropertyOp18
 70
     1
102
RTVSPropertyOp19
 70
     1
102
RTVSPropertyOp20
 70
     1
102
RTVSPropertyOp21
 70
     1
102
RTVSPropertyOp22
 70
     1
102
RTVSPropertyOp23
 70
     1
102
RTVSPropertyOp24
 70
     1
102
RTVSPropertyOp25
 70
     1
102
RTVSPropertyOp26
 70
     1
102
RTVSPropertyOp27
 70
     1
102
RTVSPropertyOp28
 70
     1
102
RTVSPropertyOp29
 70
     1
102
RTVSPropertyOp30
 70
     1
102
RTVSPropertyOp31
 70
     1
102
RTVSPropertyOp32
 70
     1
  0
XRECORD
  5
1512
102
{ACAD_REACTORS
330
1511
102
}
330
1511
100
AcDbXrecord
280
     1
102
RTVSPropertyOp0
 70
     1
102
RTVSPropertyOp1
 70
     1
102
RTVSPropertyOp2
 70
     1
102
RTVSPropertyOp3
 70
     1
102
RTVSPropertyOp4
 70
     1
102
RTVSPropertyOp5
 70
     1
102
RTVSPropertyOp6
 70
     1
102
RTVSPropertyOp7
 70
     1
102
RTVSPropertyOp8
 70
     1
102
RTVSPropertyOp9
 70
     1
102
RTVSPropertyOp10
 70
     1
102
RTVSPropertyOp11
 70
     1
102
RTVSPropertyOp12
 70
     1
102
RTVSPropertyOp13
 70
     1
102
RTVSPropertyOp14
 70
     1
102
RTVSPropertyOp15
 70
     1
102
RTVSPropertyOp16
 70
     1
102
RTVSPropertyOp17
 70
     1
102
RTVSPropertyOp18
 70
     1
102
RTVSPropertyOp19
 70
     1
102
RTVSPropertyOp20
 70
     1
102
RTVSPropertyOp21
 70
     1
102
RTVSPropertyOp22
 70
     1
102
RTVSPropertyOp23
 70
     1
102
RTVSPropertyOp24
 70
     1
102
RTVSPropertyOp25
 70
     1
102
RTVSPropertyOp26
 70
     1
102
RTVSPropertyOp27
 70
     1
102
RTVSPropertyOp28
 70
     1
102
RTVSPropertyOp29
 70
     1
102
RTVSPropertyOp30
 70
     1
102
RTVSPropertyOp31
 70
     1
102
RTVSPropertyOp32
 70
     1
  0
XRECORD
  5
1514
102
{ACAD_REACTORS
330
1513
102
}
330
1513
100
AcDbXrecord
280
     1
102
RTVSPropertyOp0
 70
     1
102
RTVSPropertyOp1
 70
     1
102
RTVSPropertyOp2
 70
     1
102
RTVSPropertyOp3
 70
     1
102
RTVSPropertyOp4
 70
     1
102
RTVSPropertyOp5
 70
     1
102
RTVSPropertyOp6
 70
     1
102
RTVSPropertyOp7
 70
     1
102
RTVSPropertyOp8
 70
     1
102
RTVSPropertyOp9
 70
     1
102
RTVSPropertyOp10
 70
     1
102
RTVSPropertyOp11
 70
     1
102
RTVSPropertyOp12
 70
     1
102
RTVSPropertyOp13
 70
     1
102
RTVSPropertyOp14
 70
     1
102
RTVSPropertyOp15
 70
     1
102
RTVSPropertyOp16
 70
     1
102
RTVSPropertyOp17
 70
     1
102
RTVSPropertyOp18
 70
     1
102
RTVSPropertyOp19
 70
     1
102
RTVSPropertyOp20
 70
     1
102
RTVSPropertyOp21
 70
     1
102
RTVSPropertyOp22
 70
     1
102
RTVSPropertyOp23
 70
     1
102
RTVSPropertyOp24
 70
     1
102
RTVSPropertyOp25
 70
     1
102
RTVSPropertyOp26
 70
     1
102
RTVSPropertyOp27
 70
     1
102
RTVSPropertyOp28
 70
     1
102
RTVSPropertyOp29
 70
     1
102
RTVSPropertyOp30
 70
     1
102
RTVSPropertyOp31
 70
     1
102
RTVSPropertyOp32
 70
     1
  0
XRECORD
  5
150A
102
{ACAD_REACTORS
330
1509
102
}
330
1509
100
AcDbXrecord
280
     1
102
RTVSPropertyOp0
 70
     1
102
RTVSPropertyOp1
 70
     1
102
RTVSPropertyOp2
 70
     1
102
RTVSPropertyOp3
 70
     1
102
RTVSPropertyOp4
 70
     1
102
RTVSPropertyOp5
 70
     1
102
RTVSPropertyOp6
 70
     1
102
RTVSPropertyOp7
 70
     1
102
RTVSPropertyOp8
 70
     1
102
RTVSPropertyOp9
 70
     1
102
RTVSPropertyOp10
 70
     1
102
RTVSPropertyOp11
 70
     1
102
RTVSPropertyOp12
 70
     1
102
RTVSPropertyOp13
 70
     1
102
RTVSPropertyOp14
 70
     1
102
RTVSPropertyOp15
 70
     1
102
RTVSPropertyOp16
 70
     1
102
RTVSPropertyOp17
 70
     1
102
RTVSPropertyOp18
 70
     1
102
RTVSPropertyOp19
 70
     1
102
RTVSPropertyOp20
 70
     1
102
RTVSPropertyOp21
 70
     1
102
RTVSPropertyOp22
 70
     1
102
RTVSPropertyOp23
 70
     1
102
RTVSPropertyOp24
 70
     1
102
RTVSPropertyOp25
 70
     1
102
RTVSPropertyOp26
 70
     1
102
RTVSPropertyOp27
 70
     1
102
RTVSPropertyOp28
 70
     1
102
RTVSPropertyOp29
 70
     1
102
RTVSPropertyOp30
 70
     1
102
RTVSPropertyOp31
 70
     1
102
RTVSPropertyOp32
 70
     1
  0
XRECORD
  5
14FE
102
{ACAD_REACTORS
330
14FD
102
}
330
14FD
100
AcDbXrecord
280
     1
102
RTVSPropertyOp0
 70
     1
102
RTVSPropertyOp1
 70
     1
102
RTVSPropertyOp2
 70
     1
102
RTVSPropertyOp3
 70
     1
102
RTVSPropertyOp4
 70
     1
102
RTVSPropertyOp5
 70
     1
102
RTVSPropertyOp6
 70
     1
102
RTVSPropertyOp7
 70
     1
102
RTVSPropertyOp8
 70
     1
102
RTVSPropertyOp9
 70
     1
102
RTVSPropertyOp10
 70
     1
102
RTVSPropertyOp11
 70
     1
102
RTVSPropertyOp12
 70
     1
102
RTVSPropertyOp13
 70
     1
102
RTVSPropertyOp14
 70
     1
102
RTVSPropertyOp15
 70
     1
102
RTVSPropertyOp16
 70
     1
102
RTVSPropertyOp17
 70
     1
102
RTVSPropertyOp18
 70
     1
102
RTVSPropertyOp19
 70
     1
102
RTVSPropertyOp20
 70
     1
102
RTVSPropertyOp21
 70
     1
102
RTVSPropertyOp22
 70
     1
102
RTVSPropertyOp23
 70
     1
102
RTVSPropertyOp24
 70
     1
102
RTVSPropertyOp25
 70
     1
102
RTVSPropertyOp26
 70
     1
102
RTVSPropertyOp27
 70
     1
102
RTVSPropertyOp28
 70
     1
102
RTVSPropertyOp29
 70
     1
102
RTVSPropertyOp30
 70
     1
102
RTVSPropertyOp31
 70
     1
102
RTVSPropertyOp32
 70
     1
  0
XRECORD
  5
1516
102
{ACAD_REACTORS
330
1515
102
}
330
1515
100
AcDbXrecord
280
     1
102
RTVSPropertyOp0
 70
     1
102
RTVSPropertyOp1
 70
     1
102
RTVSPropertyOp2
 70
     1
102
RTVSPropertyOp3
 70
     1
102
RTVSPropertyOp4
 70
     1
102
RTVSPropertyOp5
 70
     1
102
RTVSPropertyOp6
 70
     1
102
RTVSPropertyOp7
 70
     1
102
RTVSPropertyOp8
 70
     1
102
RTVSPropertyOp9
 70
     1
102
RTVSPropertyOp10
 70
     1
102
RTVSPropertyOp11
 70
     1
102
RTVSPropertyOp12
 70
     1
102
RTVSPropertyOp13
 70
     1
102
RTVSPropertyOp14
 70
     1
102
RTVSPropertyOp15
 70
     1
102
RTVSPropertyOp16
 70
     1
102
RTVSPropertyOp17
 70
     1
102
RTVSPropertyOp18
 70
     1
102
RTVSPropertyOp19
 70
     1
102
RTVSPropertyOp20
 70
     1
102
RTVSPropertyOp21
 70
     1
102
RTVSPropertyOp22
 70
     1
102
RTVSPropertyOp23
 70
     1
102
RTVSPropertyOp24
 70
     1
102
RTVSPropertyOp25
 70
     1
102
RTVSPropertyOp26
 70
     1
102
RTVSPropertyOp27
 70
     1
102
RTVSPropertyOp28
 70
     1
102
RTVSPropertyOp29
 70
     1
102
RTVSPropertyOp30
 70
     1
102
RTVSPropertyOp31
 70
     1
102
RTVSPropertyOp32
 70
     1
  0
ENDSEC
  0
EOF
